Oops, an error
Loading. Please wait.

Badgeman Brown Chords

by Blur
7 views 1 this week
no commentswrite comment
1 2 3 4 5
3 more votes to show rating
add to favorites
launch autoscroll
font size
0
reset
transpose
0
reset
simplify chords
display chords
guitar tuner
Autoscroll
slow
fast
+/-
esc
set tempo
stop
Help us to improve Ultimate-Guitar.com Take our survey!
×
Author
Difficulty
Blur - Badgeman Brown

Intro:
E|----------------------------------------------
B|----------------------------------------------
G|--7/9-9\5-7----------7/9-9--7/12-12-----------
D|--7/9-9\5-7-7/9-9-9--7/9-9--7/12-12--9--9--9--
A|--5/7-7\5-5-7/9-9-9--5/7-7--5/10-10--9--9--9--
E|------------5/7-7-7------------------7--7--7--

 Verse:
E|-------------------------------------------------------
B|-------------------------------------------------------
G|--7/999-7-7--------------7/9-99-7/12-12-12-------------
D|--7/999-7-7-7/9-9-9-999--7/9-99-7/12-12-12--9-99--999--
A|--5/777-5-5-7/9-9-9-999--5/7-77-5/10-10-10--9-99--999--
E|------------5/7-7-7-777---------------------7-77--777--

This is the voice of someone
Calling from a lonely hill
To the hard of hearing
Or those who never will
A long legged someone
Seen walking away from home
Like a vacant dreamer
Walking alone alone

C E
Days that turn and turn
C A
Which is what which we learn
B E B E
As average believers
B E C7 A C7 A
In the book of Badgeman Brown
 

They're dropping like flies
In a suburban house
From a lack of anything
Anything to keep them pendin'
And the town keeps screaming
From a lonely hill
Another lot of people
Or those who never will
Suggest correction
Give kudos to tab author, rate the tab!
1 2 3 4 5
comments
print report bad tab
guest
You may want to rate the tab now too:
select rating
Wanna post a correction for this tab? Suggest correction