Oops, an error
Loading. Please wait.

Bank Holiday Tab

by Blur
3,268 views 1 this week
2 commentsread comments
1 2 3 4 5
1 last vote to show rating
add to favorites
launch autoscroll
font size
0
reset
how to read this tab
guitar tuner
Autoscroll
slow
fast
+/-
esc
set tempo
stop
Help us to improve Ultimate-Guitar.com Take our survey!
×
Author
Difficulty
intermediate
Bank Holiday by Blur

Tabbed by Elmis
email - elmis_and_fudge@hotmail.com

Standard Tuning (EADGBE)

Intro
e-----------------|
B-----------------|
G-----2---------0-|
D---2---2-----0---|
A-0---------2-----|
E---------3-------| Play 4 times

Verses
e--------------------------------------------------|
B--------------------------------------------------|
G--------------------------------------------------|
D--------------------------------------------------|
A--------------------------------------------------|
E-5-5-5-5-3-3--5-5-5-5-3-3--5-5-5-5-3-3--5-5-5-5-3-|

e----------------------------------------------------|
B----------------------------------------------------|
G----------------------------------------------------|
D------------------------------------------------3-4-|
A------------------------------------------------1-2-|
E-5-5-5-5-3-3--5-5-5-5-3-3--5-5-5-5-3-3--5-5-5-5-----|

Chorus
e---------------------------------|
B---------------------------------|
G---------------------------------|
D-5-5-5-5-8-8-8-8-3-3-3-3-5-5-5-5-|
A-3-3-3-3-6-6-6-6-1-1-1-1-3-3-3-3-|
E---------------------------------|Play 3 times

then...
e-----------|
B-----------|
G-----------|
D-5-3-------|
A-3-1-5-----|
E-----3--2^-|

Solo
e-----------------------------17-15------------------------------17-15-|
B-------14----12-----------14--------------14----12-----------14-------|
G-14-14----12----12--14-14-----------14-14----12----12--14-14----------|
D----------------------------------------------------------------------|
A----------------------------------------------------------------------|
E----------------------------------------------------------------------|

e-----------------------------17-15---------------------------------------|
B-------14----12-----------14--------------14----12-----------14----15-16-|
G-14-14----12----12--14-14-----------14-14----12----12--14-14----14-------|
D-------------------------------------------------------------------------|
A-------------------------------------------------------------------------|
E-------------------------------------------------------------------------|

e-15p14p11-15p14p11-15p14p11-15p14p11-15p14p11-15p14p11-15p14p11-15p14p11-|
B-------------------------------------------------------------------------|
G-------------------------------------------------------------------------|
D-------------------------------------------------------------------------|
A-------------------------------------------------------------------------|
E-------------------------------------------------------------------------|

e-15p14p11-15p14p11-15p14p11-15p14p11-15p14p11-15p14p11-15p14p11-15p14p11-|
B-------------------------------------------------------------------------|
G-------------------------------------------------------------------------|
D-------------------------------------------------------------------------|
A-------------------------------------------------------------------------|
E-------------------------------------------------------------------------|

e-15p14p11-15p14p11-15p14p11-15p14p11-15p14p11-15p14p11-15p14p11-15p14p11-|
B-------------------------------------------------------------------------|
G-------------------------------------------------------------------------|
D-------------------------------------------------------------------------|
A-------------------------------------------------------------------------|
E-------------------------------------------------------------------------|

e----------|
B----------|
G----------|
D-5-3------|
A-3-1-5----|
E-----3-2^-|

Outro
e---------------|
B---------------|
G---------4^5r4-|
D-2-2-2-2-5^6r5-|
A-0-0-0-0-------|
E---------------|Play 3 times

then this...
e-----------|
B-----------|
G-----------|
D-2-2-2-2-2-|
A-0-0-0-0-0-|
E-----------|

It goes together like this:
Intro
Verse
Chorus
Verse
Chorus
Solo (played over a verse-chorus round)
Chorus
Intro
Outro

Legend
| ^  bend
| r  release bend
| h  hammer on
| p  pull off

=============================================================================
Suggest correction
Give kudos to tab author, rate the tab!
1 2 3 4 5
comments
print report bad tab
2 comments total.
+1 reply
emomagic111 10 Dec 20, 2007 05:23 AM

ahhhhhrrrr!

+1 reply
Elmis 52 Dec 28, 2007 09:07 AM

oiiiiiii!!!!!

guest
You may want to rate the tab now too:
select rating
Wanna post a correction for this tab? Suggest correction