Oops, an error
Loading. Please wait.

Beetlebum Tab

version 3
version 3

Interactive

by Blur
77,689 views 180 this week
5 commentsread comments
1 2 3 4 5
excellent!
x 41
add to favorites
launch autoscroll
font size
0
reset
how to read this tab
guitar tuner
Autoscroll
slow
fast
+/-
esc
set tempo
stop
Help us to improve Ultimate-Guitar.com Take our survey!
×
Author
Blur
Beetlebum

tabbed by Stoneman
17/09/09


I hope this is a useful insight as to what both guitars are doing throughout the song.
it's not all that complicated, which makes me wonder how the other tabs managed to fall 
of the mark. anyway, turn up your drive,
and slap on a bit of echo on your electric to replicate the guitar sound on the record.

Timing 4/4.


[Intro]

(Electric Guitar)

e|--------------------------------------------|
B|--------------------------------------------|
G|--------------------------------------------|
D|--x-x-x-x--x-x-x-x--x-x-x-x--x-x-x-x--x-----|
A|--x-x-x-x--x-x-x-x--x-x-x-x--x-x-x-x--x-----|
E|--x-x-x-x--x-x-x-x--x-x-x-x--x-x-x-x--x-12\-|

e|--------------------------------------------------|
B|--------------------------------------------------|
G|--------------------------------------------------|
D|--------------------------------------------------|
A|--7-7-7-------7-7-7-------7-7-7-------7-7-7-------|
E|--5-5-5--12\--5-5-5--12\--5-5-5--12\--5-5-5--12\--|


[Verse 1]

(Electric Guitar)

    A5
e|--------------------------------------------------|
B|--------------------------------------------------|
G|--------------------------------------------------|
D|--------------------------------------------------|
A|--7-7-7-------7-7-7-------7-7-7-------7-7-7-------|
E|--5-5-5--12\--5-5-5--12\--5-5-5--12\--5-5-5--12\--|

    C5
e|--------------------------------------------------------------|
B|--------------------------------------------------------------|
G|--------------------------------------------------------------|
D|--------------------------------------------------------------|
A|--10-10-10-------10-10-10-------10-10-10--------10-10-10------|
E|--8--8--8---12\--8--8--8---12\---8--8--8---12\--8--8--8---7\--|

    F5
e|-----------------------------------------------|
B|-----------------------------------------------|
G|-----------------------------------------------|
D|-----------------------------------------------|
A|--3-3-3--------3-3-3--------3-3-3-------3-3-3--|
E|--1-1-1---7\---1-1-1---7\---1-1-1---7\--1-1-1--|

    G5                    A#5
e|------------------------------------------|
B|------------------------------------------|
G|------------------------------------------|
D|------------------------------------------|
A|--5-5-5------5-5-5------5-5-5--8-8-8-8-8--|
E|--3-3-3--7\--3-3-3--7\--3-3-3--6-6-6-6-6--|


[Pre-Chorus]


   A5
e|-17-17-17-17-17-17-17-17--17-|
B|-14-14-17-17-17-17-17-17--17-|
G|-14-14-14-14-14-14-14-14--14-|
D|-14-14-14-14-14-14-14-14--14-|
A|-0--0--0--0--0--0--0--0---0--|
E|-----------------------------|


[Verse 2]

Acoustic (Barr Chords)


    A                                 C
e|--5-5-5-5-5-5-5-5-5-5-5-5-5-5-5-5---8--8--8--8--8--8--8--8--8--8--8--8--8--8--8--8--|
B|--5-5-5-5-5-5-5-5-5-5-5-5-5-5-5-5---8--8--8--8--8--8--8--8--8--8--8--8--8--8--8--8--|
G|--6-6-6-6-6-6-6-6-6-6-6-6-6-6-6-6---9--9--9--9--9--9--9--9--9--9--9--9--9--9--9--9--|
D|--7-7-7-7-7-7-7-7-7-7-7-7-7-7-7-7--10-10-10-10-10-10-10-10-10-10-10-10-10-10-10-10--|
A|--7-7-7-7-7-7-7-7-7-7-7-7-7-7-7-7--10-10-10-10-10-10-10-10-10-10-10-10-10-10-10-10--|
E|--5-5-5-5-5-5-5-5-5-5-5-5-5-5-5-5---8--8--8--8--8--8--8--8--8--8--8--8--8--8--8--8--|


   F                                G                        A#       A
e|-1-1-1-1-1-1-1-1-1-1-1-1-1-1-1-1--3-3-3-3-3-3-3-3-3-3-3-3--6-6-6-6--5-5-5-5-5-5-5-5--5--|
B|-1-1-1-1-1-1-1-1-1-1-1-1-1-1-1-1--3-3-3-3-3-3-3-3-3-3-3-3--6-6-6-6--5-5-5-5-5-5-5-5--5--|
G|-2-2-2-2-2-2-2-2-2-2-2-2-2-2-2-2--4-4-4-4-4-4-4-4-4-4-4-4--7-7-7-7--6-6-6-6-6-6-6-6--6--|
D|-3-3-3-3-3-3-3-3-3-3-3-3-3-3-3-3--5-5-5-5-5-5-5-5-5-5-5-5--8-8-8-8--7-7-7-7-7-7-7-7--7--|
A|-3-3-3-3-3-3-3-3-3-3-3-3-3-3-3-3--5-5-5-5-5-5-5-5-5-5-5-5--8-8-8-8--7-7-7-7-7-7-7-7--7--|
E|-1-1-1-1-1-1-1-1-1-1-1-1-1-1-1-1--3-3-3-3-3-3-3-3-3-3-3-3--6-6-6-6--5-5-5-5-5-5-5-5--5--|


[Outro]

(Both guitars)

"and when she lets me slip away"

    C           G               Am           F            Am           F            Fm
e|--3--3-3-3-3--3--3--3--3-3-3--5--5--5-5-5--1--1--1-1-1--5--5--5-5-5--1--1--1-1-1--1--1--1-1-1--|
B|--5--5-5-5-5--3--3--3--3-3-3--5--5--5-5-5--1--1--1-1-1--5--5--5-5-5--1--1--1-1-1--1--1--1-1-1--|
G|--5--5-5-5-5--4--4--4--4-4-4--5--5--5-5-5--2--2--2-2-2--5--5--5-5-5--2--2--2-2-2--1--1--1-1-1--|
D|--5--5-5-5-5--5--5--5--5-5-5--7--7--7-7-7--3--3--3-3-3--7--7--7-7-7--3--3--3-3-3--3--3--3-3-3--|
A|--3--3-3-3-3--5--5--5--5-5-5--7--7--7-7-7--3--3--3-3-3--7--7--7-7-7--3--3--3-3-3--3--3--3-3-3--|
E|--------------3--3--3--3-3-3--5--5--5-5-5--1--1--1-1-1--5--5--5-5-5--1--1--1-1-1--1--1--1-1-1--|


[Outro] 

(Electric Guitar)

e|------5----------------------------|
B|--/5-----5~----/5------------------|
G|--------------------5---4-2--------|
D|-----------------------------------|
A|-----------------------------5--3--|
E|-----------------------------------|


[Outro]

(Acoustic Guitar)


"He's on, he's on, he's on it"

    A                                 C
e|--5-5-5-5-5-5-5-5-5-5-5-5-5-5-5-5---8--8--8--8--8--8--8--8--8--8--8--8--8--8--8--8--|
B|--5-5-5-5-5-5-5-5-5-5-5-5-5-5-5-5---8--8--8--8--8--8--8--8--8--8--8--8--8--8--8--8--|
G|--6-6-6-6-6-6-6-6-6-6-6-6-6-6-6-6---9--9--9--9--9--9--9--9--9--9--9--9--9--9--9--9--|
D|--7-7-7-7-7-7-7-7-7-7-7-7-7-7-7-7--10-10-10-10-10-10-10-10-10-10-10-10-10-10-10-10--|
A|--7-7-7-7-7-7-7-7-7-7-7-7-7-7-7-7--10-10-10-10-10-10-10-10-10-10-10-10-10-10-10-10--|
E|--5-5-5-5-5-5-5-5-5-5-5-5-5-5-5-5---8--8--8--8--8--8--8--8--8--8--8--8--8--8--8--8--|

    F                                G                        A#       
e|--1-1-1-1-1-1-1-1-1-1-1-1-1-1-1-1--3-3-3-3-3-3-3-3-3-3-3-3--6-6-6-6--|
B|--1-1-1-1-1-1-1-1-1-1-1-1-1-1-1-1--3-3-3-3-3-3-3-3-3-3-3-3--6-6-6-6--|
G|--2-2-2-2-2-2-2-2-2-2-2-2-2-2-2-2--4-4-4-4-4-4-4-4-4-4-4-4--7-7-7-7--|
D|--3-3-3-3-3-3-3-3-3-3-3-3-3-3-3-3--5-5-5-5-5-5-5-5-5-5-5-5--8-8-8-8--|
A|--3-3-3-3-3-3-3-3-3-3-3-3-3-3-3-3--5-5-5-5-5-5-5-5-5-5-5-5--8-8-8-8--|
E|--1-1-1-1-1-1-1-1-1-1-1-1-1-1-1-1--3-3-3-3-3-3-3-3-3-3-3-3--6-6-6-6--|

************************************

| x  Dead note
| /  Slide up
| \  Slide down
| ~  Vibrato

************************************
Suggest correction
comments
print report bad tab
5 comments total. Showing first comments.
+1 reply
jimpy1707 93 wrote on March 16 2010, 09:51 am

good tab but outro polayed by coxon is:
e---------------------------|
B--10-----------------------|
G------9/8/9----------------|
D--------------10-9-7-------|
A----------------------5----|
E---------------------------|

apart from that epic tab!

0 reply
stoneman44 242 wrote on March 16 2010, 11:15 pm

its the same notes only higher on the neck..

0 reply
macmancometh 10 wrote on March 30 2010, 02:13 pm

Very good tab.

guest
You may want to rate the tab now too:
select rating
Please do not post tabs as comments. Select "correction" instead!