Oops, an error
Loading. Please wait.

Beetlebum Tab

version 4
version 4

Whole song

Interactive

by Blur
1,543 views 1 this week
no commentswrite comment
1 2 3 4 5
please rate
add to favorites
launch autoscroll
font size
0
reset
how to read this tab
guitar tuner
Tab Pro tools
  • play this tab
  • loop segment
  • change instrument
  • show fretboard
  • metronome
×
Best way to learn
"Beetlebum"
Autoscroll
slow
fast
+/-
esc
set tempo
stop
Contributor
#----------------------------------PLEASE NOTE--------------------------------#
#This file is the author's own work and represents their interpretation of the#
#song. You may only use this file for private study, scholarship, or research.#
#-----------------------------------------------------------------------------#
#-- File created with Instab - http://www.pconline.com/~smcarey/instab.html --#
#-----------------------------------------------------------------------------#

Author/Artist: Blur
Title: Beetlebum

/ slide up
\ slide down


Palm mute all.

Tuning (eb A D G B E), (eb, D) Down ~ 10%
Live Tuning (E E B B B B)
Key: (E + D)


----|---------|--|---------------|--|
----|---------|--|---------------|--|
----|-x-x-x-x-|--|---------------|--|
----|-x-x-x-x-|4x|---------------|8x|
----|---------|--|---------------|--|
----|---------|--|-13\--6--6--6--|--|
         
          
 Intro  G1                    




----|-------------|--|-------------|--|------------|--|------------|--|----------|
----|-------------|--|-------------|--|------------|--|------------|--|----------|
----|-------------|--|-------------|--|------------|--|------------|--|-x-x-x-x--|
----|-------------|4x|-------------|4x|------------|4x|------------|3x|-x-x-x-x--|
----|-------------|--|-------------|--|------------|--|------------|--|----------|
----|-13\-6--6--6-|--|13\-9--9--9--|--|8--\-2--2--2|--|8--\-4--4-4-|--|----------|


  Verse




----|-5--5--9--9--9--9--12--12--12--|
----|-5--5--5--5--5--5--10--10--10--|
----|-------------------------------|
----|-------------------------------|
----|-------------------------------|
----|-------------------------------|


  Prechorus 





----|-----------------------------|---
----|-5---3---5---3---5---3---1---|---
----|-5---4---5---2---5---2---1---|---
----|-5---5---7---3---7---3---3---|-5-
----|-----------------------------|-3-
----|-----------------------------|---

 
  Chorus 




----|----------------|
----|-5---5---5---3--|
----|-5---5---5---4--|
----|-7---5---3---5--|
----|----------------|
----|----------------|


 Outro G1 





----|----------------------------------------|--|
----|----------------------------------------|--|
----|-14-14----------------------------------|--|
----|----------------------------------------|--|
----|-------17/19-17/19----------------------|--|
----|--------------------21-21-21-20-20--11--|--|

 
  Outro G2
comments
We did not receive enough feedback on this tab! Please rate:
print report bad tab
1 2 3 4 5
I want to post or [tab]
guest
You may want to rate the tab now too:
select rating
Please do not post tabs as comments. Select "correction" instead!