Oops, an error
Loading. Please wait.

Boys And Girls Bass Tab

version 1
version 1

Whole song

by Blur
31,002 views 60 this week
2 commentsread comments
1 2 3 4 5
x 7
add to favorites
launch autoscroll
font size
0
reset
guitar tuner
Autoscroll
slow
fast
+/-
esc
set tempo
stop
Help us to improve Ultimate-Guitar.com Take our survey!
×
Blur - Girls and Boys
TAB for Bass in Standard tuning
Most of the song is just this riff reapeated , with tiny variation!

G|------------------|------------------|
D|---5--------5-----|---5\-------3-4-5-|
A|------------------|------------------|
E|-3----1-2-3----1-2|-3----1-2-3-------|

G|---5--------5-----|---3-4-5---5---5\-|
D|------------------|---------3--------|
A|-3----1-2-3----1-2|-3-----------3----|
E|------------------|------------------|

G|------------------|------------------|
D|----3------3------|--3---------------|
A|------------------|------------------|
E|-1-----0h1-------0h1-----5---6---7---|

G|-----8\5------8\5|-----8\5-----8-7-8\|
D|-----------------|-------------------|
A|3/6-----3/6------|3/6------3/6-------|
E|-----------------|-------------------|

And that is it! A Phat ass Bass line from one of the best British bands around!

************************************

| \  Slide down
| h  Hammer-on
| /  Slide up

************************************
Suggest correction
comments
print report bad tab
2 comments total.
0 reply
souledassylum 10 Mar 15, 2002 12:00 AM

couldnt agree more

0 reply
Tomnthegang 72 Oct 30, 2006 07:18 AM

I ****ing love this song. Brilliantly tabbed

guest
You may want to rate the tab now too:
select rating
Wanna post a correction for this tab? Suggest correction