Oops, an error
Loading. Please wait.

Charmless Man Bass Tab

version 1
version 1

Whole song

Interactive

by Blur
8,110 views 3 this week
no commentswrite comment
1 2 3 4 5
x 8
add to favorites
launch autoscroll
font size
0
reset
guitar tuner
Autoscroll
slow
fast
+/-
esc
set tempo
stop
Help us to improve Ultimate-Guitar.com Take our survey!
×
BLUR: "CHARMLESS MAN"

Transcribed by Gary Regester (descry@erols.com)

This transcription should be fairly acurate.  I transcribed it for a student
a while back but I don't have a recording of the song to double check.  All
of the sections are written out, but not the order in which they go.  The
rhythm is mostly 8th notes.  I put a lower-case 's' over the 16th notes, so
watch for those.


INTRO
              s s                 s s
|-------------------|-------------------|-----------------|-----------------|
|-------------------|-------------------|-----------------|-----------------|
|-0-0-0-0-0-0-7-7-0-|-0-0-0-0-0-0-7-7-0-|-0-0-0-0-4-4-0-2-|-----0-2-4-4-0-2-|
|-------------------|-------------------|-----------------|---0-------------|

|-----------------|-----------------|-----5-------5---||
|---4-----0---0---|-----9-9---9-----|---7---7---7---7-||
|-----0-2---------|-7-7-----7---7-6-|-5-------5-------||
|-----------------|-----------------|-----------------||


VERSE
          tacet 7 bars           s s             s s   s s   s s
|-------|--------------|-2-2---2-1---1-----|-----------------------|
|-------|--------------|-----2-----2---2-4-|-4-4-4p2h4-4p0h4-4p2h4-|
|-------|--------------|-------------------|-----------------------|
|-5\----|--------------|-------------------|-----------------------|

          s s             s s
|-2-2---2-1---1-----|-------------------||
|-----2-----2---2-4-|-4-4-4p2h4-----4-4-||
|-------------------|-------------------||
|-------------------|-----------2-2-----||


PRE-CHORUS
                        s s
|-----------------|-------------------|-----------------|-----------------||
|-----------------|-------------------|-----------------|-------7-7-7-7-7-||
|-2-2---2-4-4-0-0-|-5-5-5p0h5-7-7---7-|---------5-5-5-5-|-----7-----------||
|-----2-----------|---------------7---|-5-5-5-5---------|-5-5-------------||


CHORUS

|------------------|-----------------||
|------------------|-----------------||
|-------------/7---|-----------------||
|-5-5---5-4-4------|-2-2-0-2-2-2-0-2-||


ENDING
                            rit.......^
|-----------------|-----------------|---||
|-----------------|-------------0---|---||
|-------------4---|-----------------|-0-||
|-3-3---3-2-2-----|-1-1---1-0-------|---||


This song was transcribed for Rachel Shaw.
Suggest correction
comments
print report bad tab
guest
You may want to rate the tab now too:
select rating
Wanna post a correction for this tab? Suggest correction