Oops, an error
Loading. Please wait.

Coffee And Tv Bass Tab

version 1
version 1

Whole song

Interactive

by Blur
41,915 views 36 this week
1 commentread comment
1 2 3 4 5
x 14
add to favorites
launch autoscroll
font size
0
reset
guitar tuner
Autoscroll
slow
fast
+/-
esc
set tempo
stop
Help us to improve Ultimate-Guitar.com Take our survey!
×
[Intro]

G|------------------------------|------------------------------|
D|------------------------------|------------------------------|
A|--14--14----12--14--14--------|--14--14----14--14------14----|
E|--------------------------14--|--------------------14--------|


G|--------------------------------|--------------------------|
D|--------------------------------|--------------------------|
A|--12--12----12--12------10--12--|--7--7-----7--7-----5--7--|
E|--------------------12----------|--------7--------7--------|


G|-------------------------------|--------------------------|
D|-------------------------------|--------------------------|
A|--10--10----10--10------8--10--|--8--8--7--7--5--5--------|
E|--------------------10---------|--------------------8--8--|


G|-------------------------|-------------------------|
D|-------------------------|-------------------------|
A|--1--1-----1--1--1----1--|--4--4-----4--4-----4/---|
E|--------1----------------|--------4--------4-------|


[Verse]

G|------------------------------|------------------------------|
D|------------------------------|------------------------------|
A|--14--14----12--14--14--------|--14--14----14--14------14----|
E|--------------------------14--|--------------------14--------|


G|--------------------------------|--------------------------|
D|--------------------------------|--------------------------|
A|--12--12----12--12------10--12--|--7--7-----7--7-----5--7--|
E|--------------------12----------|--------7--------7--------|

                                      
G|-------------------------------|-------------------------|
D|-------------------------------|-------------------------|
A|--10--10----10--10------8--10--|--8--8----8--8--------5--|
E|--------------------10---------|----------------5--8-----|


G|-----------------------|-------------------------|
D|-----------------------|-------------------------|
A|-----------------------|--4--4-----4--4-----4----|
E|--6--6----6--6--6------|--------4--------4-------|

       
G|------------------------------|------------------------------|
D|------------------------------|------------------------------|
A|--14--14----14--14--14----12--|--14--14--------14--14--------|
E|------------------------------|------------14------------14--|

           
G|------------------------------|-------------------------|
D|------------------------------|-------------------------|
A|--12--12----12--12------12----|--7--7-----7--7-----7----|
E|--------------------12--------|--------7--------7-------|

              
G|-------------------------------|-------------------------|
D|-------------------------------|-------------------------|
A|--10--10----10--10------8--10--|--8--8----8--8--------5--|
E|--------------------10---------|----------------5--8-----|

   
G|------------------------|--------------------------------|
D|------------------------|--------------------------------|
A|------------------------|--------12--12--12--12--12--12--|
E|--6--6----6--6--6----6--|--5--5/-------------------------|

                    
G|--------------------------------|
D|--------------------------------|
A|--12--12----12--12------10--12--|
E|--------------------12----------|


[Chorus]

G|------------------------|-------------------------|
D|------------------------|-------------------------|
A|--4--4----2--4--4-------|--4--4-------4--4--2--4--|
E|---------------------4--|----------4--------------|


G|------------------------------|-----------------------------|
D|------------------------------|-----------------------------|
A|--14--14----14--14--14----14--|--12--12--------12--12-------|
E|------------------------------|------------12------------7--|


G|------------------------|------------------------|
D|------------------------|------------------------|
A|------------------------|--7--7-------7--7----7--|
E|--9--9----7--9--9----9--|----------7-------------|


G|-------------------------|-------------------------|
D|-------------------------|-------------------------|
A|----------------4--7--4--|----------------6--9-----|
E|--5--5----5--5-----------|--7--7----7--7--------7--|


G|------------------------|-------------------------|
D|------------------------|-------------------------|
A|--4--4----2--4--4-------|--4--4-------4--4--2--4--|
E|---------------------4--|----------4--------------|


G|------------------------------|-----------------------------|
D|------------------------------|-----------------------------|
A|--14--14----14--14--14----14--|--12--12--------12--12-------|
E|------------------------------|------------12------------7--|

  
G|------------------------|------------------------|
D|------------------------|------------------------|
A|------------------------|--7--7-------7--7----7--|
E|--9--9----7--9--9----9--|----------7-------------|


G|--------------------------------|
D|--------------------------------|
A|--12--12----12--12--12------12--|
E|------------------------12------|


G|------------------------|-------------------------|
D|------------------------|-------------------------|
A|--5--5----5--5--5----5--|--5--5----5--5-----------|
E|------------------------|----------------3--4--5--|


G|------------------------------|----------------------------------|
D|------------------------------|----------------------------------|
A|--12--12----12--12--12----12--|--12------12------12------12--13--|
E|------------------------------|------12------12------12----------|



For the guitar solo play Intro twice. The second time play this:

G|------------------------------|------------------------------|
D|------------------------------|------------------------------|
A|--14--14----12--14--14--------|--14--14----14--14------14----|
E|--------------------------14--|--------------------14--------|


                                                            
G|--------------------------------|--------------------------|
D|--------------------------------|--------------------------|
A|--12--12----12--12------10--12--|--7--7-----7--7-----5--7--|
E|--------------------12----------|--------7--------7--------|


                                                           
G|-------------------------------|--------------------------|
D|-------------------------------|--------------------------|
A|--10--10----10--10------8--10--|--8--8--7--7--5--5--------|
E|--------------------10---------|--------------------8--8--|


                                                          
G|------------------------|--------------------------------|
D|------------------------|--------------------------------|
A|--1--1-------1--1----1--|--------12--12--12--12--12--12--|
E|----------1-------------|--5--5/-------------------------|


                                  
G|--------------------------------|
D|--------------------------------|
A|--12--12----12--12------10--12--|
E|--------------------12----------|


[Outro]

G|------------------------------|------------------------------|
D|------------------------------|------------------------------|
A|--14--14--------14--14--------|--14--14--------14--14--------|
E|------------14------------14--|------------14------------14--|

                                                            
G|------------------------------|------------------------------|
D|--12--12--------12--12--------|--12--12--------12--12----12--|
A|------------12------------12--|------------12----------------|
E|------------------------------|------------------------------|

                                                           
G|------------------------------|------------------------------||
D|------------------------------|------------------------------||
A|--12--12--------12--12--------|--12--12--------12--12--------||
E|------------12------------12--|------------12------------12--||


************************************

| /  Slide up

************************************
Suggest correction
comments
print report bad tab
1 comment total.
0 reply
musicismyradar 50 Apr 03, 2002 12:00 AM

Excellent tabbing! A bit heavy on the fingers this song but good fun to play.

guest
You may want to rate the tab now too:
select rating
Wanna post a correction for this tab? Suggest correction