Oops, an error
Loading. Please wait.

Coffee And Tv Tab

version 4
version 4

Whole song

Interactive

by Blur
8,368 views 6 this week
no commentswrite comment
1 2 3 4 5
please rate
add to favorites
launch autoscroll
font size
0
reset
how to read this tab
guitar tuner
Autoscroll
slow
fast
+/-
esc
set tempo
stop
Help us to improve Ultimate-Guitar.com Take our survey!
×
Author
Coffee and TV

Heres a freakish tab attempt for this song, its from the live performance in Hyde park.
e-----------------------------------------------------------------------|
B-----------------------------------------------------------------------|
G--8-8-x---8-8b8-x---8-8b8-x---8-8-8b8----5-5-x---5-5-5-5/11-11-x-9--9-9|
D--9-9-x---9-9-9-x---9-9-9-x---9-9-9-9----5-5-x---5-5-5-5/-x--x-x-x--x-x|
A--9-9-x---9-9-9-x---9-9-9-x---9-9-9-9----3-3-x---3-3-3-3/-9--9-x-7--7-7|
E--7-7-x---7-7-7-x---7-7-7-x---7-7-7-7----------------------------------|

e--------------------------------------------------------|
B--------------------------------------------------------|
G-------------3-3-x------8-8-x-------6-6-x----6-6-6-6-6--|
D--7-7-x------3-3-x--X2--8-8-x---X2--6-6-x----6-6-6-6-6--|
A--7-7-x--X2--1-1-x------6-6-x-------4-4-x----4-4-4-4-4--|
E--5-5-x-------------------------------------------------|

Play the above sections in that order 3 times but on the 3rd time play the 
section bellow with the extra chords.
e---------------------------------------------------------------|
B---------------------------------------------------9-9--13-----|
G-------------3-3-x------8-8-x-------6-6-x---6-6-x--9-9--13-----|
D--7-7-x------3-3-x--X2--8-8-x---X2--6-6-x---6-6-x--x-x---x-----|
A--7-7-x--X2--1-1-x------6-6-x-------4-4-x---4-4-x--7-7--11-----|
E--5-5-x--------------------------------------------------------|


Faster strumming.
e-------------------------------------------------------------------|
B------------------------------------------------12----10----9----5-|
G--6-6-x---6-6-x---6-6-x---6-6-x------------------x-----x----x----x-|
D--6-6-x---6-6-x---6-6-x---6-6-x---9-9-x---9-9-x--9-----7----6----2-|
A--4-4-x---4-4-x---4-4-x---4-4-x---9-9-x---9-9-x--------------------|
E----------------------------------7-7-x---7-7-x--------------------|

e--------------------------------------------------|
B---------------------------------12-12---10---5---|
G--6-6-x---6-6-x-------------------x--x----x---x---|
D--6-6-x---6-6-x----9-9-x---9-9-x--9--9----7---2---|
A--4-4-x---4-4-x----9-9-x---9-9-x------------------|
E-------------------7-7-x---7-7-x------------------|

Even faster strumming
e-----------------------------------------------|
B-----------------------------------------------|
G-11-11-11---11-11-11-11-11--11-11-11-11-11-11--|
D-11-11-11---11-11-11-11-11--11-11-11-11-11-11--|
A--x--x--x----x--x--x--x--x---x--x--x--x--x--x--|
E--9--9--9----9--9--9--9--9---9--9--9--9--9--9--|

e-----------------------------------------------|
B--------------------------------12-10-9-5------|
G--11-11-11-11-11-11--------------x--x-x-x------|
D--11-11-11-11-11-11---x-9-9-9-x--9--7-6-2------|
A---x--x--x--x--x--x---x-9-9-9-x----------------|
E---9--9--9--9--9--9---x-7-7-7-x----------------|


e--------------------------------------------|
B---------------------------------12--10-----|
G--6-6-x---6-6-x-------------------x---x-----|
D--6-6-x---6-6-x----9-9-9---9-9-x--9---7-----|
A--4-4-x---4-4-x----9-9-9---9-9-x------------|
E-------------------7-7-7---7-7-x------------|

e---------------------------------------------------------------------|
B---------------------------------------------------------------------|
G--6-6-x---6-6-x---6-6-x---6-6-x--------------------------------------|
D--6-6-x---6-6-x---6-6-x---6-6-x---9-9-x---9-9-x---9-9-x---9-9-9-9-9--|
A--4-4-x---4-4-x---4-4-x---4-4-x---9-9-x---9-9-x---9-9-x---9-9-9-9-9--|
E----------------------------------7-7-x---7-7-x---7-7-x---7-7-7-7-7--|

e-----------------------------------------------------------------------| 
B-----------------------------------------------------------------------| 
G--8-8-x---8-8b8-x---8-8b8-x---8-8-8b8----5-5-x---5-5-5-5/11-11-x-9--9-9| 
D--9-9-x---9-9-9-x---9-9-9-x---9-9-9-9----5-5-x---5-5-5-5/-x--x-x-x--x-x|
A--9-9-x---9-9-9-x---9-9-9-x---9-9-9-9----3-3-x---3-3-3-3/-9--9-x-7--7-7|
E--7-7-x---7-7-7-x---7-7-7-x---7-7-7-7----------------------------------| 

e--------------------------------------------------------| Keep         
B--------------------------------------------------------| strumming
G-------------3-3-x------8-8-x-------6-6-x----6-6-6-6-6--|-9---
D--7-7-x------3-3-x--X2--8-8-x---X2--6-6-x----6-6-6-6-6--|-9---
A--7-7-x--X2--1-1-x------6-6-x-------4-4-x----4-4-4-4-4--|-7---
E--5-5-x-------------------------------------------------|-----

e-------------------------------------------------------------------|
B------------------------------------------------12----10----9----5-|
G--6-6-x---6-6-x---6-6-x---6-6-x------------------x-----x----x----x-|
D--6-6-x---6-6-x---6-6-x---6-6-x---9-9-x---9-9-x--9-----7----6----2-|
A--4-4-x---4-4-x---4-4-x---4-4-x---9-9-x---9-9-x--------------------|
E----------------------------------7-7-x---7-7-x--------------------|

e--------------------------------------------------|
B---------------------------------12-12---10---5---|
G--6-6-x---6-6-x-------------------x--x----x---x---|
D--6-6-x---6-6-x----9-9-x---9-9-x--9--9----7---2---|
A--4-4-x---4-4-x----9-9-x---9-9-x------------------|
E-------------------7-7-x---7-7-x------------------|

e-----------------------------------------------------------------------|
B-------------------------------------------------------------12-10-9-5-|
G-11-11-11---11-11-11---11-11-11---11-11-11--------------------x--x-x-x-|
D-11-11-11---11-11-11---11-11-11---11-11-11---9-9-x---9-9-x----9--7-6-2-|
A--x--x--x----x--x--x----x--x--x----x--x--x---9-9-x---9-9-x-------------|
E--9--9--9----9--9--9----9--9--9----9--9--9---7-7-x---7-7-x-------------|

e--------------------------------------------|
B---------------------------------12--10-----|
G--6-6-x---6-6-x-------------------x---x-----|
D--6-6-x---6-6-x----9-9-9---9-9-x--9---7-----|
A--4-4-x---4-4-x----9-9-9---9-9-x------------|
E-------------------7-7-7---7-7-x------------|

e---------------------------------------------------------------------|
B---------------------------------------------------------------------|
G--6-6-x---6-6-x---6-6-x---6-6-x--------------------------------------|
D--6-6-x---6-6-x---6-6-x---6-6-x---9-9-x---9-9-x---9-9-x---9-9-9-9-9--|
A--4-4-x---4-4-x---4-4-x---4-4-x---9-9-x---9-9-x---9-9-x---9-9-9-9-9--|
E----------------------------------7-7-x---7-7-x---7-7-x---7-7-7-7-7--|

Solo
e--------------------------12~-10~-----------------------------|
B--12b-----------------------------11~-------------------------|
G------11h13--14~--9~~9~~9~~-------------11--12--11-9b-----12--|
D------------------------------------------------------12~~----|
A--------------------------------------------------------------|
E--------------------------------------------------------------|
Theres more but its just improvised so make it up yourself ;p

e-------------------------------------------------------------------|
B------------------------------------------------12----10----9----5-|
G--6-6-x---6-6-x---6-6-x---6-6-x------------------x-----x----x----x-|
D--6-6-x---6-6-x---6-6-x---6-6-x---9-9-x---9-9-x--9-----7----6----2-|
A--4-4-x---4-4-x---4-4-x---4-4-x---9-9-x---9-9-x--------------------|
E----------------------------------7-7-x---7-7-x--------------------|

e--------------------------------------------------|
B---------------------------------12-12---10---5---|
G--6-6-x---6-6-x-------------------x--x----x---x---|
D--6-6-x---6-6-x----9-9-x---9-9-x--9--9----7---2---|
A--4-4-x---4-4-x----9-9-x---9-9-x------------------|
E-------------------7-7-x---7-7-x------------------|

e-----------------------------------------------------------------------|
B-------------------------------------------------------------12-10-9-5-|
G-11-11-11---11-11-11---11-11-11---11-11-11--------------------x--x-x-x-|
D-11-11-11---11-11-11---11-11-11---11-11-11---9-9-x---9-9-x----9--7-6-2-|
A--x--x--x----x--x--x----x--x--x----x--x--x---9-9-x---9-9-x-------------|
E--9--9--9----9--9--9----9--9--9----9--9--9---7-7-x---7-7-x-------------|

e----------------------------------------------|
B---------------------------------12-12-10-----|
G--6-6-x---6-6-x-------------------x--x--x-----|
D--6-6-x---6-6-x----9-9-9---9-9-x--9--9--7-----|
A--4-4-x---4-4-x----9-9-9---9-9-x--------------|
E-------------------7-7-7---7-7-x--------------|

e---------------------------------------------------------------------|
B---------------------------------------------------------------------|
G--6-6-x---6-6-x---6-6-x---6-6-x--------------------------------------|
D--6-6-x---6-6-x---6-6-x---6-6-x---9-9-x---9-9-x---9-9-x---9-9-9-9-9--|
A--4-4-x---4-4-x---4-4-x---4-4-x---9-9-x---9-9-x---9-9-x---9-9-9-9-9--|
E----------------------------------7-7-x---7-7-x---7-7-x---7-7-7-7-7--|

Crazy feedback solo

e------------------------------------|
B------------------------------------|
G--6-6-x---6-6-x---6-6-x---6-6-x-----| Fades out
D--6-6-x---6-6-x---6-6-x---6-6-x-----|
A--4-4-x---4-4-x---4-4-x---4-4-x-----|
E------------------------------------|



Suggest correction
What's this?
You can suggest a correction to this tab. Community and Mods will review your correction and vote to approve or reject it.
comments
We did not receive enough feedback on this tab! Please rate:
print report bad tab
1 2 3 4 5
guest
You may want to rate the tab now too:
select rating
Please do not post tabs as comments. Select "correction" instead!