Oops, an error
Loading. Please wait.

Colin Zeal Bass Tab

by Blur
601 views 1 this week
no commentswrite comment
1 2 3 4 5
3 more votes to show rating
add to favorites
launch autoscroll
font size
0
reset
guitar tuner
Autoscroll
slow
fast
+/-
esc
set tempo
stop
Help us to improve Ultimate-Guitar.com Take our survey!
×
Author
Difficulty
intermediate
-------------------------------------------------------------------------------
                                                        COLIN ZEAL - Blur
-------------------------------------------------------------------------------
Tabbed by: Ben Potts
E-mail: backseatben@hotmail.com

This might not be 100% accurate but what I've tabbed sounds right, and there 
aren't any existing tabs on the net...so yeah...

G|----------|
D|----------|
A|-10-11-12-|
E|----------|
(Until second guitar comes in)

G|----7777-----------------------|
D|--------77-55-7----3355--------|
A|-5--------------5------55-33-5-|
E|-------------------------------|(x7)

G|-7777--------|
D|-----77-55-7-|
A|-------------|     
E|-------------|

G---------------------------------------------------|
D---------------------------------------------------|
A-2-1/2-2-5-----------------------------4---4---5-7-|
E----------5-3--3-3-5-3-1---1-1-1-3-5-----5---5-----|(x2)

G|--------------------------------------------------|
D|--------------------------------------------------|
A|-2-0-2---3/10-2-0-2----3/10-2-0-2--------1-1-1-1-1|
E|------3-------------3-------------3--3-3----------|

G|----7777-----------------------|
D|--------77-55-7----3355--------|
A|-5--------------5------55-33-5-|
E|-------------------------------|(x4)

G|----7777---------------------|
D|--------77-55-7----2-3---3-5-|
A|-5--------------5------5-----|
E|-----------------------------|(x3)

G|-7777--------|
D|-----77-55-7-|
A|-------------|     
E|-------------|

G---------------------------------------------------|
D---------------------------------------------------|
A-2-1/2-2-5-----------------------------4---4---5-7-|
E----------5-3--3-3-5-3-1---1-1-1-3-5-----5---5-----|(x2)

G|--------------------------------------------------|
D|--------------------------------------------------|
A|-2-0-2---3/10-2-0-2----3/10-2-0-2--------1-1-1-1-1|
E|------3-------------3-------------3--3-3----------|(x2)

G|------|
D|------|
A|------|
E|-10/0-|

G---------------------------------------------------|
D---------------------------------------------------|
A-2-1/2-2-5-----------------------------4---4---5-7-|
E----------5-3--3-3-5-3-1---1-1-1-3-5-----5---5-----|(x4)

G|--------------------------------------------------|
D|--------------------------------------------------|
A|-2-0-2---3/10-2-0-2----3/10-2-0-2--------1-1-1-1-1|
E|------3-------------3-------------3--3-3----------|(x4)

G|---|
D|---|
A|-5-|
E|---|

| /  slide up
| \  slide down
| h  hammer-on
| p  pull-off
| ~  vibrato
| +  harmonic
| x  Mute note
Suggest correction
Give kudos to tab author, rate the tab!
1 2 3 4 5
comments
print report bad tab
guest
You may want to rate the tab now too:
select rating
Wanna post a correction for this tab? Suggest correction