Oops, an error
Loading. Please wait.

Death Of A Party Chords

version 1
version 1

Whole song

Interactive

by Blur
8,595 views 9 this week
1 commentread comment
1 2 3 4 5
accurate
x 5
add to favorites
launch autoscroll
font size
0
reset
transpose
0
reset
display chords
guitar tuner
Autoscroll
slow
fast
+/-
esc
set tempo
stop
Help us to improve Ultimate-Guitar.com Take our survey!
×
blur, death of a party.
Tabbed by gary, jubilee2@bolt.com.
  
Death Of A Party

F# C Bm
 The death of the party
 F# C Bm 
Came as no surprise 
F# C Bm 
Why did we bother 
F# C Bm 
Should've stayed away 
D
 Another night 
C Bm
 And I thought "Well, well" 
D 
Go to another party
 C Bm F#
 And plant myself gently on the shelf
 F# C Bm
 The death of a teenager
 F# C Bm 
Standing on his own 
F# C Bm 
Why did he bother
 F# C Bm 
Should've slept alone 
D 
Another night
 C Bm
 And I thought "Well, well"
 D
 Go to another party 
C Bm F# 
And hang myself gently on the shelf 
 

VERSE RIFF;

D-----------4-------------------------
A--------------------0-11-000-111-----
E--0-2-2-22---222-22------------------


CHORUS RIFF;

E--2H-3P2---2H-3P2----2H-3P2---2H-3P2--
B--------3--------3---------3--------3-

E--2H-3P2---2H-3P2----2H-3P2---2H-3P2--
B--------------------------------------
G--------4--------4---------4--------3-



verse & chorus riff transcribe by Gary dobson 
:: Ultimate Guitar Archive :: 
http://www.ultimate-guitar.com 



Suggest correction
What's this?
You can suggest a correction to this tab. Community and Mods will review your correction and vote to approve or reject it.
comments
print report bad tab
1 comment total.
+1 reply
HughF 192 wrote on August 13 2006, 03:17 pm

Should't the chorus riff be
------------------------------------------------
------------------------------------------------
---------11b12b11-x4-----------11b12b11-x4------
--12-12-----------------9-9---------------------
------------------------------------------------
------------------------------------------------

guest
You may want to rate the tab now too:
select rating
Please do not post tabs as comments. Select "correction" instead!