Oops, an error
Loading. Please wait.

For Tomorrow Bass Tab

version 1
version 1

Whole song

Interactive

by Blur
5,629 views 10 this week
no commentswrite comment
1 2 3 4 5
excellent!
x 6
add to favorites
launch autoscroll
font size
0
reset
guitar tuner
Tab Pro tools
  • play this tab
  • loop segment
  • change instrument
  • show fretboard
  • metronome
×
Best way to learn
"For Tomorrow"
Autoscroll
slow
fast
+/-
esc
set tempo
stop
Contributor
BLUR - FOR TOMORROW
(Tabbed by w7w7w7)


Ok probably not my best tab. Maybe my worst. I did it cause it's my fav
song and just wanted to play on it. This is based on the studio version
and a live version. As you know Alex James is doing a lot of variations
so when you think something is correct, it's not on the next verse. One
thing I'm sure of is that all of this fits perfectly in the song.



Verse
G|       He's a         -------------------------------------------------|
D|      twentieth       ------------6---6-6----5-----5------5---5--------|
A|       century        -2-2-2-----------6-6-----------------------------|
E|         boy          --------4------------------3----323---3----------|

G|-----------------------------------------------------------------------|
D|-------------------------------------------------5-----5--545-5---5----|
A|---------0-2-3-5-----5----5-0-5-7-8---8---8--7-------------------------|
E|-1---0-0-----------5-----------------------8---------3----------3------|

G|--------------/14-13-9-11\---------------------------------------------|
D|---------------------------9-9-9--11--------11-9-6-5---/5----/5--------|
A|-4---424---0---------------------------11------------------------------|
E|-----------------------------------------------------/3----/3-----0----|

G|-----------------------------------------------------------------------|
D|-------------------------------------------------5-----5---5-5---7-----|
A|---------0-2-3-5-----5--------5-7-8---8---7-8--------5---5-----7-------|
E|-1---0-0-----------5---5----5-------8---8-----8------------------------|



Chorus
G|-----------------------------------------------------------------------|
D|---------------------------4-5-----------------------------------------|
A|-----------------------5-5------------------------------5---5-7-5------|
E|-5---0-0-5-5---3---0-3------------5---0-0-5-5---3---0-3-----------8-5--|

G|-----------------------------------------------------------------------|
D|---------------------------4-5-----------------------------------------|
A|-----------------------5-5---------------------------------------------|
E|-5---0-0-5-5---3---0-3------------1-----0-1-0-1-3----------------------|



Verse #2
G|--------------/14-13-9-11\---------------------------------------------|
D|---------------------------9-9-9--11--------11-9-6-5---/5----/5--------|
A|-4---424---0---------------------------11------------------------------|
E|-----------------------------------------------------/3----/3-----0----|

G|-----------------------------------------------------------------------|
D|-------------------------------------------------5-----5--545-5---5----|
A|---------0-2-3-5-----5----5-0-5-7-8---8---8--7-------------------------|
E|-1---0-0-----------5-----------------------8---------3----------3------|

G|--------------/14-13-9-11\---------------------------------------------|
D|---------------------------9-9-9--11--------11-9-6-5---/5----/5--------|
A|-4---424---0---------------------------11------------------------------|
E|-----------------------------------------------------/3----/3-----0----|

G|-----------------------------------------------------------------------|
D|-------------------------------------------------5-----5---5-5---7-----|
A|---------0-2-3-5-----5--------5-7-8---8---7-8--------5---5-----7-------|
E|-1---0-0-----------5---5----5-------8---8-----8------------------------|



Chorus



Bridge
G|--------------/14-13-9-11\---------------------------------------------|
D|---------------------------9-9-9--11--------11-9-6-5---/5----/5--------|
A|-4---424---0---------------------------11------------------------------|
E|-----------------------------------------------------/3----/3-----0----|



Verse #2

Chorus -> end
comments
print report bad tab
I want to post or [tab]
guest
You may want to rate the tab now too:
select rating
Please do not post tabs as comments. Select "correction" instead!