Oops, an error
Loading. Please wait.

Gene By Gene Tab

by Blur
1,463 views 1 this week
no commentswrite comment
1 2 3 4 5
x 4
add to favorites
launch autoscroll
font size
0
reset
how to read this tab
guitar tuner
Autoscroll
slow
fast
+/-
esc
set tempo
stop
Help us to improve Ultimate-Guitar.com Take our survey!
×
Author
Song:    Gene by gene
Artist:  Blur
Album:   Think Tank

Here we go. 

Intro (w/ Wah)

 C                         F  
|--3--3--3--5--1--3--3—3--|-------------------------|
|-------------------------|----3----1----3----1-----|
|-------------------------|-------------------------|
|-------------------------|-------------------------|
|-------------------------|-------------------------|
|-------------------------|-------------------------|


C
I've got a brain in a left hand drive
F
I don't sleep other side
C
I ride a bullet like I'm Steve McQueen
F
Each town, I intervene
C
A gram of keef and the barn is jumping
F
It's alright, we got time
C
Got a radio hit in mind, 
F
Can't see am I blind


C                 Bb
Every night and day, I never thought it
C            Bb
In the U.S.A_____ I delete myself

 C                         Bb
|--3--0---------------—---|--3--0-------------------|
|--------1----------1--1--|--------1----------1--1--|
|-----------0---3---------|-----------0---3---------|       x2
|-------------------------|-------------------------|
|-------------------------|-------------------------|
|-------------------------|-------------------------|


C 
Got to get to know you gene by gene
F
You're my jellybean
C
I'm in shower and I'm Force 15
F
But I'm dead when I'm clean
C
Fatboy and the barn is jumpin'
F
It's alright, it's just fight
C
Got to get into a better business
F
Deep down, happiness

C                 Bb
Every night and day, I never thought it
C            Bb
In the U.S.A_____ I delete myself


C                         Bb
|--3--0---------------—---|--3--0-------------------|
|--------1----------1--1--|--------1----------1--1--|
|-----------0---3---------|-----------0---3---------|       x8
|-------------------------|-------------------------|
|-------------------------|-------------------------|
|-------------------------|-------------------------|

Thats how it goes. Questions? Comments? e_hvid@hotmail.com
Suggest correction
comments
print report bad tab
guest
You may want to rate the tab now too:
select rating
Wanna post a correction for this tab? Suggest correction