Oops, an error
Loading. Please wait.

Girls And Boys Bass Tab

version 1
version 1

Whole song

Interactive

by Blur
31,271 views 54 this week
2 commentsread comments
1 2 3 4 5
x 19
add to favorites
launch autoscroll
font size
0
reset
guitar tuner
Autoscroll
slow
fast
+/-
esc
set tempo
stop
Help us to improve Ultimate-Guitar.com Take our survey!
×
G       
G|--------------------------------------------|
D|-----5-----------5-----------5---------3-4-5|
A|--------------------------------------------|
E|-3-------1-2-3-------1-2-3-------1-2-3------|

    C       
G|-----5-----------5---------3-4-5-----5---5|
D|------------------------------------------|
A|-3-------1-2-3-------1-2-3---------3---3--|
E|------------------------------------------|

    F
G|--------------------------------|
D|-----3---------3---------3------|
A|---------------------------0-1-2|
E|-1-------0-1-------0-1----------|

    Eb                      F#  F
G|-----8\------8\------8\--8-7-8|
D|------------------------------|
A|-6-------6-------6------------|
E|------------------------------|


************************************

| \  Slide down

************************************
Suggest correction
comments
print report bad tab
2 comments total.
0 reply
Piepih 10 Oct 30, 2010 05:44 PM

Thanks! I love to put my own fills in when I play this. (:

0 reply
WibbleWobble 1,835 Jul 27, 2014 06:04 AM

nice one good song to play

guest
You may want to rate the tab now too:
select rating
Wanna post a correction for this tab? Suggest correction