Oops, an error
Loading. Please wait.

Girls And Boys Bass Tab

version 2
version 2

Whole song

Interactive

by Blur
1,975 views 3 this week
1 commentread comment
1 2 3 4 5
please rate
add to favorites
launch autoscroll
font size
0
reset
guitar tuner
Tab Pro tools
  • play this tab
  • loop segment
  • change instrument
  • show fretboard
  • metronome
×
Best way to learn
"Girls And Boys"
Autoscroll
slow
fast
+/-
esc
set tempo
stop
Difficulty
intermediate
-------------------------------------------------------------------------------
			     Gilrs & Boys - Blur
-------------------------------------------------------------------------------

A great song, a great bassline. All by ear. Hope you like it. Listen to the song 
to get te right timing =) 

Tabbed By : Rafael Ugarte
e-mail: rafa07_31@hotmail.com

Tuning: Standard

INTRO
G|-------------------------------------|
D|-5(x16)------------------------------|
A|--------3(x16)-8(x16)-6(x12)-9-9-8-8-|
E|-------------------------------------|

G|----------------------------|---5------5-----345---5---5/-|
D|---5------5------5-----345/-|-----------------------------|
A|----------------------------|-3----123----123----3---3----|
E|-3---123----123----123------|-----------------------------|

G|--------------------------8/----8/----8/-878/-|
D|---3-----3------3-----------------------------|
A|------------------0-1-2\6----\6----\6---------|
E|-1----0-1---0-1-------------------------------|


VERSE 1
G|----------------------------|---5------5------5--345---5/-|
D|---5------5------5-----345/-|-----------------------------|
A|----------------------------|-3----123----123--------3----|
E|-3---123----123----123------|-----------------------------|

G|--------------------------8/----8/----8/-878/-|
D|---3-----3------3-----------------------------|
A|------------------0-1-2\6----\6----\6---------|
E|-1----0-1---0-1-------------------------------|

G|----------------------------|---5------5-----345---5---5/-|
D|---5------5------5-----345/-|-----------------------------|
A|----------------------------|-3----123----123----3---3----|
E|-3---123----123----123------|-----------------------------|

G|--------------------------8/----8/----8/-8-8--878/-|
D|---3-----3------3----------------------------------|
A|------------------0-1-2\6----\6----\6---6-6--------|
E|-1----0-1---0-1------------------------------------|

CHORUS 1
G|----------------------------|---5------5------5--345---5/-|
D|---5------5------5-----345/-|-----------------------------|
A|----------------------------|-3----123----123--------3----|
E|-3---123----123----123------|-----------------------------|

G|--------------------------8/----8/----8/-878/-|
D|---3-----3------3-----------------------------|
A|------------------0-1-2\6----\6----\6---------|
E|-1----0-1---0-1-------------------------------|

VERSE 2
G|----------------------------|---5------5------345---5---5/-|
D|---5------5------5-----345/-|------------------------------|
A|----------------------------|-3----123----123-----3---3----|
E|-3---123----123----123------|------------------------------|

G|--------------------------8/----8/----8/-878/-|
D|---3-----3------3-----------------------------|
A|------------------0-1-2\6----\6----\6---------|
E|-1----0-1---0-1-------------------------------|

G|----------------------------|---5------5------5-345---5---5-|
D|---5------5------5-----345/-|-------------------------------|
A|----------------------------|-3----123----123-------3---3---|
E|-3---123----123----123------|-------------------------------|

G|--------------------------8/----8/----8/-878/-|
D|---3-----3------3-----------------------------|
A|------------------0-1-2\6----\6----\6---------|
E|-1----0-1---0-1-------------------------------|

CHORUS 2
G|----------------------------|---5------5------345---5---5/-|
D|---5------5------5-----345/-|------------------------------|
A|----------------------------|-3----123----123-----3---3----|
E|-3---123----123----123------|------------------------------|

G|--------------------------8/----8/----8/-878/-|
D|---3-----3------3-----------------------------|
A|------------------0-1-2\6----\6----\6---------|
E|-1----0-1---0-1-------------------------------|

G|----------------------------|---5------5------345---55---5-|
D|---5------5------5-----345/-|------------------------------|
A|----------------------------|-3----123----123-----3----3---|
E|-3---123----123----123------|------------------------------|

G|--------------------------8/----8/----8/-878/-|
D|---3-----3------3-----------------------------|
A|------------------0-1-2\6----\6----\6---------|
E|-1----0-1---0-1-------------------------------|

G|-----------------------------|---5------5------345---5---5/--|
D|---5------5----345---55---5/-|-------------------------------|
A|-----------------------------|-3----123----123-----3---3-----|
E|-3---123----123----3----3----|-------------------------------|

G|--------------------------8/----8/----8/-878/-|
D|---3-----3------3-----------------------------|
A|------------------0-1-2\6----\6----\6---------|
E|-1----0-1---0-1-------------------------------|

BREAK (wait!!!!!)
G|-878/-|
D|------|
A|------|
E|------|

CHORUS 3
G|----------------------------|---5------5------345-----------|
D|---5------5----345---5---5/-|-------------------------------|
A|----------------------------|-3----123----123-------3---3---|
E|-3---123----123----3---3----|---------------------0---0---0-|

G|--------------------------8/----8/----8/-878/-|
D|---3-----3------3-----------------------------|
A|------------------0-1-2\6----\6----\6---------|
E|-1----0-1---0-1-------------------------------|

ENDING (Repeat this or whatever you want until fade out)
G|----------------------------|---5------5-----345---5---5/-|
D|---5------5------5-----345/-|-----------------------------|
A|----------------------------|-3----123----123----3---3----|
E|-3---123----123----123------|-----------------------------|

G|--------------------------8/----8/----8/-8-8--878/-|
D|---3-----3------3----------------------------------|
A|------------------0-1-2\6----\6----\6---6-6--------|
E|-1----0-1---0-1------------------------------------|


| /  slide up
| \  slide down
| h  hammer-on
| p  pull-off
| ~  vibrato
| +  harmonic
| x  Mute note
===============================================================================
comments
We did not receive enough feedback on this tab! Please rate:
print report bad tab
1 2 3 4 5
1 comment total.
0 reply
Jordo141 wrote on September 10 2010, 02:18 pm

Exact same tablature as Version 1.

Except you have an intro in there which doesn't exist...

I want to post or [tab]
guest
You may want to rate the tab now too:
select rating
Please do not post tabs as comments. Select "correction" instead!