Oops, an error
Loading. Please wait.

Good Song Bass Tab

version 2
version 2

Whole song

Interactive

by Blur
677 views 3 this week
no commentswrite comment
1 2 3 4 5
2 more votes to show rating
add to favorites
launch autoscroll
font size
0
reset
guitar tuner
Autoscroll
slow
fast
+/-
esc
set tempo
stop
Help us to improve Ultimate-Guitar.com Take our survey!
×
Difficulty
novice
Rest 7 Measures

Verse:
G|-7/12-----------|
D|--------2-3-----|
A|----------------|
E|----------------|

Pre-Chorus:
G|--2--------------|
D|-----1/3------0--|
A|-----------------|
E|-----------------|

Chorus:
G|---------|
D|-5-5-----|
A|-----5---|
E|-------3-|

.................................................................................
Suggest correction
Give kudos to tab author, rate the tab!
1 2 3 4 5
comments
print report bad tab
guest
You may want to rate the tab now too:
select rating
Wanna post a correction for this tab? Suggest correction