Oops, an error
Loading. Please wait.

Good Song Bass Tab

version 3
version 3

Whole song

Interactive

by Blur
957 views 1 this week
no commentswrite comment
1 2 3 4 5
please rate
add to favorites
launch autoscroll
font size
0
reset
guitar tuner
Autoscroll
slow
fast
+/-
esc
set tempo
stop
Help us to improve Ultimate-Guitar.com Take our survey!
×
Author
Difficulty
novice
----------------------------------------------------------------------------
                             Good Song - Blur
----------------------------------------------------------------------------
Tabbed by: Zaqq
E-mail: zaqqthe@gmail.com

Tuning: standard (EADG)

Note: I think it's better to play without plucking the note AFTER sliding during Verses
(for example, you slide from 7 to 12 and don't pluck that 12).

 Verse 1:
G|------9-|-/12----|------7-|-/12----|------9-|-/12----|------7-|-/12----|
D|--------|--------|--------|--------|--------|--------|--------|--------|
A|--------|--------|-7--8---|--------|-7--8---|--------|-7--8---|--------|
E|--------|--------|--------|--------|--------|--------|--------|--------|

G|------9-|-/12----|------7-|-/12----|--------|
D|--------|--------|--------|--------|--------|
A|-7--8---|--------|-7--8---|--------|-7--8---|
E|--------|--------|--------|--------|--------|

 Chorus:
G|--------|--------|--------|--------|--------|--------|--------|
D|--------|--------|--------|--------|--------|--------|--------|
A|--------|--------|--------|--------|--------|--------|--------|
E|-5----1-|-/6---1-|-/5---1-|-/6---1-|-/3---1-|-/3---1-|-/8-----|

G|--------|--------|
D|--------|--------|
A|-7--8---|--------|
E|--------|-8------|

  Verse 2:
G|------9-|-/12----|------9-|-/12----|------9-|-/12----|
D|--------|--------|--------|--------|--------|--------|
A|-7--8---|--------|-7--8---|--------|-7--8---|--------|
E|--------|--------|--------|--------|--------|--------|

G|------9-|-/12----|--------|
D|--------|--------|--------|
A|-7--8---|--------|-7--8---|
E|--------|--------|--------|

 ___Repeat Chorus____

  Verse 3:
G|------7-|-/12----|------9-|-/12----|------9-|-/12----|------7-|-/12----|
D|--------|--------|--------|--------|--------|--------|--------|--------|
A|-7--8---|--------|-7--8---|--------|-7--8---|--------|-7--8---|--------|
E|--------|--------|--------|--------|--------|--------|--------|--------|

G|------9-|-/12----|------7-|-/12----|------9-|-/12----|------7-|-/12----|
D|--------|--------|--------|--------|--------|--------|--------|--------|
A|-7--8---|--------|-7--8---|--------|-7--8---|--------|-7--8---|--------|
E|--------|--------|--------|--------|--------|--------|--------|--------|
                                                  slide down
G|------9-|-/12----|------7-|-/12----|------7-|-/12----|-\------|
D|--------|--------|--------|--------|--------|--------|--------|
A|-7--8---|--------|-7--8---|--------|-7--8---|--------|--------|
E|--------|--------|--------|--------|--------|--------|--------|

| /  slide up
| \  slide down
Suggest correction
Give kudos to tab author, rate the tab!
1 2 3 4 5
comments
print report bad tab
guest
You may want to rate the tab now too:
select rating
Please do not post tabs as comments. Select "correction" instead!