Oops, an error
Loading. Please wait.

Inertia Tab

by Blur
1,663 views 1 this week
1 commentread comment
1 2 3 4 5
please rate
add to favorites
launch autoscroll
font size
0
reset
how to read this tab
guitar tuner
Tab Pro tools
  • play this tab
  • loop segment
  • change instrument
  • show fretboard
  • metronome
×
Best way to learn
"Inertia"
Autoscroll
slow
fast
+/-
esc
set tempo
stop
Contributor
Difficulty
intermediate
Tabbed by: Willian
Email:AAuuddee@aol.com

There's an Acoustic Guitar i think... Playing the chords.
INTRO:
  G                     F#
------------------------------0---------------|
------3---5p3-------------------2-------------|
----4---4-----4-------4-----3-----4p3------3--|
--5-------------5---5-----4--------------4----|
--5---------------5-----4--------------4------|
--3---------------------2---------------------|
  E
------------------------------|
--5b---5---5---5--5--5--5--5--|
------------------------------| Repeat
------------------------------|
------------------------------|
------------------------------|


VERSE1:

  E                       E     A                    E
-----0-----------------------0-----------------------0--|
-----0-----------------------0-----------------------0--|
-----1--1--2p1----repeat-----1--4b6r4--2--1---1---1--1--|
-----2---------2-------------2--------------2---2----2--|
-----2-----------------------2-----------------------2--|
--0--0--------------------0--0-----------------------0--|

  A             F#  A
-----------------2--0--|
-----------------2--2--|
--4b6r4--2--1----3--2--|
--------------2--4--2--|
-----------------4--0--|
-----------------2-----|


CHORUS:

  E
--------------------------|
--------------------------|
--9b11-9---9--9--9--9--9--|repeat
--------------------------|
--------------------------|
--------------------------|

  G                     F#
------------------------------0---------------|
------3---5p3-------------------2-------------|
----4---4-----4-------4-----3-----4p3------3--|
--5-------------5---5-----4--------------4----|
--5---------------5-----4--------------4------|
--3---------------------2---------------------|

  E
------------------------------|
------------------------------|
--9b11-9---9---9--9--9--9--9--|repeat
------------------------------|
------------------------------|
------------------------------|


VERSE2: same as verse1


CHORUS:play the chords with disto in the same time
when they are indicated

  E(022100)                       A(x02220)
----------------------------------------|
----------------------------------------|
--9b11-9---9--9--9--9--9--repeat--11~~--|
----------------------------------------|
----------------------------------------|
----------------------------------------|

  E(022100)
--------------------------|
--------------------------|
--9b11-9---9--9--9--9--9--|
--------------------------|
--------------------------|
--------------------------|

  G(355433)             F#(244322)
------------------------------0---------------|
------3---5p3-------------------2-------------|
----4---4-----4-------4-----3-----4p3------3--|
--5-------------5---5-----4--------------4----|
--5---------------5-----4--------------4------|
--3---------------------2---------------------|

  E(022100)
------------------------------|
------------------------------|
--9b11-9---9---9--9--9--9--9--|
------------------------------|
------------------------------|
------------------------------|

------------------------------|
------------------------------|
--9b11-9---9---9--9--9--9--9--|
------------------------------|
------------------------------|
------------------------------|

A second guitar starts to play the *
------------------------------|
------------------------------|
--9b11-9---9---9--9--9--9--9--|
------------------------------|
------------------------------|
------------------------------|

------------------------------|
------------------------------|
--9b11-9---9---9--9--9--9--9--|
------------------------------|
------------------------------|
------------------------------|

*is:

  E
-----0-------------------|
-----0-------------------|
-----1--1--2p1----repeat-|
-----2---------2---------|
-----2-------------------|
--0--0-------------------|


VERSE3: same as the other verses


CHORUS:play the chords with disto in the same time
when they are indicated

  E(022100)                       A(x02220)
----------------------------------------|
----------------------------------------|
--9b11-9---9--9--9--9--9--repeat--11~~--|
----------------------------------------|
----------------------------------------|
----------------------------------------|

  E(022100)
--------------------------|
--------------------------|
--9b11-9---9--9--9--9--9--|
--------------------------|
--------------------------|
--------------------------|

  G(355433)             F#(244322)
------------------------------0---------------|
------3---5p3-------------------2-------------|
----4---4-----4-------4-----3-----4p3------3--|
--5-------------5---5-----4--------------4----|
--5---------------5-----4--------------4------|
--3---------------------2---------------------|

  E(022100)
------------------------------|
------------------------------|
--9b11-9---9---9--9--9--9--9--|repeat
------------------------------|
------------------------------|
------------------------------|

   E(022100)
(------------------------------|
(------------------------------|
(--9b11-9---9---9--9--9--9--9--|
(------------------------------|
(------------------------------|
(------------------------------|

  D(xx0232)             G(355422)F#(244322)
------------------------------------0----------)
-----------------------------5p3------2--------)
--7b9--7---7---7--7--7--7--7-----4------4p3----)
-----------------------------------------------)repeat the ()
-----------------------------------------------)
-----------------------------------------------)

  E
--0--
--0--
--1--
--2--
--2--
--0--
comments
We did not receive enough feedback on this tab! Please rate:
print report bad tab
1 2 3 4 5
1 comment total.
0 reply
blur1994thfc wrote on September 22 2010, 09:03 pm

This tab is ace. thanks a lot!

I want to post or [tab]
guest
You may want to rate the tab now too:
select rating
Please do not post tabs as comments. Select "correction" instead!