Oops, an error
Loading. Please wait.

Into Another Tab

by Blur
236 views 1 this week
no commentswrite comment
1 2 3 4 5
please rate
add to favorites
launch autoscroll
font size
0
reset
how to read this tab
guitar tuner
Tab Pro tools
  • play this tab
  • loop segment
  • change instrument
  • show fretboard
  • metronome
×
Best way to learn
"Into Another"
Autoscroll
slow
fast
+/-
esc
set tempo
stop
Contributor
Intro & Verses:

Guitar1:
D Ab E Ab G repeat
e|----------2---------------------------------------------------|
B|------3-----3---3-------------4--5--0------------4--3---------|
G|----2---2-----2---------5---5---------1--------5------4-------|
D|--0-------------------6---6-------------2----6----------5-----|
A|-------------------------------------------6--------------5---|
E|-------------------4----------------------------------------3-|

Guitar 2:
G|--11--13--9--13--12---

Repeat Throughout Verse, Then Last Time, Play This:
Guitar 1:
D Ab E Ab A
e|----------2--------------------------------------------------|
B|------3-----3---3-------------4--5--0------------4--5--5--5--|
G|----2---2-----2---------5---5---------1--------5----6--6--6--|
D|--0-------------------6---6-------------2----6------7--7--7--|
A|-------------------------------------------6--------7--7--7--|
E|-------------------4--------------------------------5--5--5--|

Guitar 2:
G|--11--13--9--13--14--

Chorus:

Guitar 1:
G B E Abm C#m Bm D B
e|-----------------------------------|
B|-----------------------------------|
G|--4---8---1---4---9----7---11---8--|
D|--5---9---2---6---11---9---12---9--| x2
A|--5---9---2---6---11---9---12---9--|
E|--3---7---0---4---9----7---10---7--|

Guitar 2:
B|--8--12--17--9--12--14--12--15--12-- x2

(Repeat Verse)

(Repeat Chorus)

Bridge:

Guitar 1:
D Ab
e|----------2----2--2-----------4----4--4--|
B|------3-----3--2--4------5------5--4--6--|
G|----2---2------2--4----4---4-------4--6--|
D|--0------------------6-------------------|
A|-----------------------------------------|
E|-----------------------------------------|

e|-------------------------------------|
B|--7--7--7--9--9---7-7--7--7--10--9---|
G|--7--7--7--7--7---7-7--7--7--7---7---|
D|--9--9--9--9--9---7h9--9--9--9---9---|
A|-------------------------------------|
E|-------------------------------------|

e|--------------------------------------|
B|--7-7--7--7--9--9---7-7--7--7--10--9--|
G|--7-7--7--7--7--7---7-7--7--7--7---7--|
D|--7h9--9--9--9--9---7h9--9--9--9---9--| Repeat
A|--------------------------------------|
E|--------------------------------------|

Guitar 2:
e|----------------------------------------------------------------|
B|------------------------1s3-------------------------------1s3---|
G|--4r2h4-----2s4-2s4---------4-----2s4-2s4-----2s4-2s4---------4-|
D|--------2h4---------2h4-------2h4---------2h4---------2h4-------|
A|----------------------------------------------------------------|
E|----------------------------------------------------------------|

e|--------------------------------------------------------------|
B|------------------1s3--------1s3-------1s3--------------------|
G|------2s4-2s4---------4----------4---------4-----2s4-2s4------|
D|--2h4---------2h4-------2h4--------2h4-------2h4---------2h4--|
A|--------------------------------------------------------------|
E|--------------------------------------------------------------|

e|---------------------------------|
B|----------------3--5s(slowly)s9--|
G|--2s4-2s4--2--4------------------|
D|---------------------------------|
A|---------------------------------|
E|---------------------------------|

The last time, play this:
Guitar 1:
E D
e|----------------------7---5--|
B|--7--7--7--9--9---7---9---7--|
G|--7--7--7--7--7---7---9---7--|
D|--9--9--9--9--9---7---9---7--|
A|-----------------------------|
E|-----------------------------|

Then play the chorus chords without lyrics.

Repeat Chorus x2 then end the song on a G.
comments
We did not receive enough feedback on this tab! Please rate:
print report bad tab
1 2 3 4 5
I want to post or [tab]
guest
You may want to rate the tab now too:
select rating
Please do not post tabs as comments. Select "correction" instead!