Oops, an error
Loading. Please wait.

Jets Bass Tab

by Blur
2,381 views 1 this week
no commentswrite comment
1 2 3 4 5
please rate
add to favorites
launch autoscroll
font size
0
reset
guitar tuner
Autoscroll
slow
fast
+/-
esc
set tempo
stop
Help us to improve Ultimate-Guitar.com Take our survey!
×
Author
Difficulty
novice
-------------------------------------------------------------------------------
			     JETS - Blur
-------------------------------------------------------------------------------

Tabbed By : TomleHat
e-mail: thom25j@yahoo.co.uk

Tuning: Standard

My favourite song from Think Tank, one of the best albums of all time in my opinion. 
Although the bass guitar is quite simple it really makes the song sound laid back 
and funky - it's a very good chill out song.

Second Bass/Guitar plays in the background during intro and verses:
G|-----------------------------7-7-7-9-7---------------|
D|-----5-------------5---------------------------5-----|
A|-7-7---7-7-----7-7---7-7-------------------7-7---7-7-|
E|-----------------------------------------------------|

VERSE:
G|------------------------------------------|
D|------------------------------------------|
A|-----------------------------10\-----5-7\-|
E|-0--3--0--0-----7/10\-----7---------------|

Replace the last part of the verse with this riff just before the chorus and the bass solo
G|-----------|
D|-----7h8p7-|
A|-10--------|
E|-----------|

CHORUS: (Jets are like comets...)
G|---------------------------------------------------------------------------------|
D|---------------------------------------------------------------------------------|
A|----5-----5--7-----------5-----5--7-----------9-----9--------------5-----5--7----|
E|-7-----7--------0-----7-----7--------0-----7-----7-----7--0-----7-----7--------0-|

VERSE

BASS SOLO: (3:02 - 4:03)
G|------------------------------------------|
D|------------------------------------------|
A|-----------------------------10\-----5/7\-|
E|-0--3--0--0---------------7---------------|

G|-----------------------------------------------|
D|-----------------------------------------7h8p7-|
A|-----------------------------10\-----10--------|
E|-0--3--0--0---------------7--------------------|

G|-----------------------------------------|
D|-----------------------------------------|
A|-----------------------------10\-----7-7-|
E|-0--3--0--0-----7/10\-----7--------------|

G|----------------------------------------|
D|----------------------------------------|
A|---------------------------10\-----9-7\-|
E|-0--3--0--0-----10\-----7---------------|

G|--------------------------------------|
D|--------------------------------------|
A|---------------------------10\-----7\-|
E|-0--3--0--0-----10\-----7-------------|

G|-----------------------------------------------|
D|-----------------------------------------7h8p7-|
A|-----------------------------10\-----10--------|
E|-0--3--0--0-----7/10\-----7--------------------|


SAX SOLO: (not a good day for bass guitar!)
G|-----------------|
D|-----------------|
A|-----------------| x many
E|-0---------------|

| /  slide up
| \  slide down
| h  hammer-on
| p  pull-off
===============================================================================
Suggest correction
Give kudos to tab author, rate the tab!
1 2 3 4 5
comments
print report bad tab
guest
You may want to rate the tab now too:
select rating
Please do not post tabs as comments. Select "correction" instead!