Oops, an error
Loading. Please wait.

Lonesome Street tab

version 2
version 2

Whole song

by Blur
667 views 9 this week
no commentswrite comment
1 2 3 4 5
3 more votes to show rating
add to favorites
×
Save as Personal and add changes to this tab that will be seen only by you. Learn more ›
×
You can save this tab as Personal to edit and correct it or add notes. All changes will be seen only by you. Learn more »
launch autoscroll
font size
0
reset
how to read this tab
guitar tuner
edit
Autoscroll
slow
fast
+/-
esc
set tempo
stop
Author
Difficulty
-------------------------------------------------------------------------------
                             LONESOME STREET - Blur
-------------------------------------------------------------------------------

Tabbed by: BritGuitars
E-mail: britguitars@gmail.com

Tuning: Standard (eBGDAE)

- Intro: 

e|----------------------------------------|
B|-10-11-12-10---------------------()/\---|
G|-------------11-9-8--------------()/\---|
D|--------------------9-7----------()/\---|
A|------------------------9-7-6----()/\---|
E|----------------------------------------|
                       (play a random chord while sliding up and down)


- Main riff:

e|-----------------------------------------------|
B|-7----7--------5--5---------7---7--------5--5--|
G|-7----7----x-x-6--6---x-x-x-7---7----x-x-6--6--|
D|-7----7----x-x-7--7---x-x-x-7---7----x-x-7--7--|
A|-x----x----x-x-7--7---x-x-x-x---x----x-x-7--7--|
E|-5----5--------5--5---------5---5--------5--5--|


e|-------------------------------------------------|
B|-7----7--------5--5---------7---7--------5--5--5-|
G|-8----8----x-x-6--6---x-x-x-8---8----x-x-6--6--6-|
D|-9----9----x-x-7--7---x-x-x-9---9----x-x-7--7--7-|
A|-9----9----x-x-7--7---x-x-x-9---9----x-x-7--7--7-|
E|-7----7--------5--5---------7---7--------5--5--5-|


- Verse riff:

e|-----------------------------------------------|
B|---------------5--5----------------------5--5--|
G|-7----7----x-x-6--6---x-x-x-7---7----x-x-6--6--|
D|-7----7----x-x-7--7---x-x-x-7---7----x-x-7--7--|
A|-5----5----x-x-7--7---x-x-x-5---5----x-x-7--7--|
E|-5----5--------5--5---------5---5--------5--5--|


e|-------------------------------------------------|
B|---------------5--5----------------------5--5--5-|
G|-----------x-x-6--6---x-x-x----------x-x-6--6--6-|
D|-1----1----x-x-7--7---x-x-x-1---1----x-x-7--7--7-|
A|-2----2----x-x-7--7---x-x-x-2---2----x-x-7--7--7-|
E|-2----2--------5--5---------2---2--------5--5--5-|

- Variation:

e|------------------|
B|-6----------------|
G|-6----------------|
D|-6----6-6-6-6-6-6-|
A|-4----4-4-4-4-4-4-|
E|------------------|

- Chorus:

e|------------------------------------------------------------|
B|-2---------2--------7------------2---------2----5-----7-----|
G|-2---------2--------8------------2---------2----6-----8-----|
D|-4---------4--------9------------4---------4----7-----9-----|
A|-4---------4--------9------------4---------4----7-----9-----|
E|-2---------2--------7------------2---------2----5-----7-----|


 (then arpeggiate the following chords)
e|---------------------------------------------------|
B|-12--------11-------7-------6----------------------|
G|-12--------11-------7-------7-------repeat intro---|
D|-11--------10-------7-------8----------------------|
A|-12--------11-------5-------8----------------------|
E|---------------------------------------------------|


- Bridge (while Graham sings):

e|------------------------------------------------------------------|
B|-8--------9----9--x-x-x------9----9--x-x-x-----8------------------|
G|-8--------9----9--x-x-x-7b---9----9--x-x-x-7b--8------------------|
D|-8--------9----9--x-x-x------9----9--x-x-x-----8------------------|
A|-6--------7----7-------------7----7------------6------9brbrbrbrbr-|
E|------------------------------------------------------------------|

- Ending riff:

e|-----------------------------------------|
B|-3----3----3----3----3----3----3----3----|
G|-2----2----2----2----2----2----2----2----|
D|-0----0----0----0----0----0----0----0----|
A|-----------------------------------------|
E|-----------------------------------------|


e|-------------------------------------------------|
B|---------------5--5----------------------5--5--5-|
G|-----------x-x-6--6---x-x-x----------x-x-6--6--6-|
D|-1----1----x-x-7--7---x-x-x-1---1----x-x-7--7--7-|
A|-2----2----x-x-7--7---x-x-x-2---2----x-x-7--7--7-|
E|-2----2--------5--5---------2---2--------5--5--5-|

- Outro:

e|---------------------|
B|-7--------7----------|
G|-7--------7--------x-|
D|-7--------7--------1-|
A|-5--------5--------2-|
E|-5--------5--------2-|


************************************

| /   slide up
| \   slide down
| x   Mute note
| br  Bend release

************************************

You can check my video for reference on how to play it:
https://www.youtube.com/watch?v=UZN7_rz0Usw
Suggest correction
Creating personal tab
Creating personal tab
You can edit any tab online and save it as your Personal.

You can edit, replace or remove any tab part or add personal notes – all changes will be seen only by you.

Personal tabs can be accessed anytime from any device, even offline.
Learn more »
Give kudos to tab author, rate the tab!
1 2 3 4 5
comments
print report bad tab
guest
You may want to rate the tab now too:
select rating
Wanna post a correction for this tab? Suggest correction