Oops, an error
Loading. Please wait.

Mr Robinsons Quango Bass

version 1
version 1

Whole song

Interactive

410 views 1 this week
no commentswrite comment
1 2 3 4 5
3 more votes to show rating
add to favorites
launch autoscroll
font size
0
reset
guitar tuner
×
Best way to learn
"Mr Robinsons Quango"
Autoscroll
slow
fast
+/-
esc
set tempo
stop
Author
Difficulty
  follow
intermediate
-------------------------------------------------------------------------------
			     Blur - Mr Robinson's Quango
-------------------------------------------------------------------------------

Tabbed By : Milo Larkin
e-mail: milo.larkin@hotmail.co.uk

This is a cracking Blur song, with some crazy funky riffs from the mighty 
Alex James. 
He uses lots of improvisation in this bassline so there might be some notes 
that aren't exactly spot on. Enjoy!

Tuning: EADGB

Intro:

G|--------------------------------------------------------------|
D|--------------------------------------------------------------| x2
A|-----/777-5----------------------------/7--5------------------|
E|-000---------7--5--7--3--1--2---0-0-0---------7--5--7--3--1-2-|

Pre-Verse:

G|--------------------------------------------------|
D|--------------------------------------------------| x2
A|-------679--------986--------4--2--------4--------|
E|-7--7-------7--7--------4--4--------4--4-----456--|

Verse:

G|---------------------------------------------------|
D|---------------------------------------------------|
A|-------679--------986--------4--2--------4---------|
E|-7--7-------7--7--------4--4--------4--4-----456---|


G|---------------------------------------|
D|----3/5----------------5h7---7-5-------|
A|--------3-------3---------------------5|
E|3-3-------3-3-6----5-5-----5------5-8--|

Chorus:

G|---------------------------|
D|------4---4-----------2h4--| x2
A|------------0-1-2-3-4------|
E|--2-2---2------------------|

Play intro again twice
Verse x2
Intro x2

Bass Interlude:

G|-------7-------------------------------------6------------------6--------------|
D|-----9---9-7-9----------9-7---7-9---9------7---7-5---5h7------7---7-5-------5h7|
A|----------------------------9----------------------7------------------7-5h7----|
E|-7-7-----------10b--7-7-----------7----5-5----------------5-5------------------|

G|-----------------------------------------------|
D|-----2-4---------2-4--------2/4---------2-4----|
A|-----------2-3-4------0---------0-2-3-4--------|
E|-2-2-----2--------------2-2--------------------|

Play Verse x2
Chorus x 2
Intro x 4
Chorus x 8

Outro:

G|---------------------------------------------|
D|-----2-4---------2-4--------2/4---------2-4--|
A|-----------2-3-4------0---------0-2-3-4------| x2
E|-2-2-----2--------------2-2------------------|


| /  slide up
| \  slide down
| h  hammer-on
| p  pull-off
| ~  vibrato
| +  harmonic
| x  Mute note
===============================================================================
Suggest correction
Give kudos to tab author, rate the tab!
1 2 3 4 5
comments
print report bad tab
guest
You may want to rate the tab now too:
select rating
Wanna post a correction for this tab? Suggest correction