Oops, an error
Loading. Please wait.

Music Is My Radar Bass Tab

version 2
version 2

Whole song

by Blur
1,736 views 3 this week
no commentswrite comment
1 2 3 4 5
please rate
add to favorites
launch autoscroll
font size
0
reset
guitar tuner
Autoscroll
slow
fast
+/-
esc
set tempo
stop
Help us to improve Ultimate-Guitar.com Take our survey!
×
Author
Difficulty
novice
Music is My Radar – Blur
Tabbed by Danielo87

Intro
G:---------------------------------|
D:---------------------------------|
A:----------10-12-10/14------------|
E:--12-------------------12--------|

Pre-Solo
G:-----2-----------------|
D:--0h2---2-0------------|
A:------------2-0--------|
E:-----------------0-0---|

Solo
G:--------------------------------------------------------------|
D:---------------------------9----9-12-9-12---------------------|
A:------------10-10-12-10-12---12-------------------------------|
E:---12-10-12---------------------------------------------------|

G:-----------------------------------17-21\---------------------|
D:--------------17----17-16-19-17-19----------------------------|
A:--17-19-17-19----19-------------------------------------------|
E:--------------------------------------------------------------|
(My bass only goes up to 20 frets so I just bend 20th fret up a semi-tone, or 
you could just slide down from 19th fret on the A string)
Verse
G:--------------------------------|
D:--------------------------------|
A:-5-7-----7----------------------|
E:------5-----5--3-55-3-5-3-0-0---|

Bridge
G:----------------------|
D:----------------------|
A:----------------------|
E:---0-0-8^--0-0-0-8^---|

Pre-Outro
G:--------------------|
D:----2---2---2---2---|
A:--------------------|
E:--0---0---0---0-----|

Outro
G:------------------------------|
D:------------------------------|
A:------------------------------|
E:--0--000-0-000-0-000-0-000----|

Intro x 12
Pre-Solo x 4
Solo x 2
Verse x 8
Bridge x 8
Verse x 8
Bridge x 8
Verse x 4
Solo x 2
Verse x 6
Pre-Outro x 8
Oturo til fade
Suggest correction
What's this?
You can suggest a correction to this tab. Community and Mods will review your correction and vote to approve or reject it.
comments
We did not receive enough feedback on this tab! Please rate:
print report bad tab
1 2 3 4 5
guest
You may want to rate the tab now too:
select rating
Please do not post tabs as comments. Select "correction" instead!