Oops, an error
Loading. Please wait.

No Distance Left To Run tab

version 3
version 3

Whole song

Interactive

by Blur
430 views 9 this week
no commentswrite comment
1 2 3 4 5
1 last vote to show rating
add to favorites
×
Save as Personal and add changes to this tab that will be seen only by you. Learn more ›
×
You can save this tab as Personal to edit and correct it or add notes. All changes will be seen only by you. Learn more »
launch autoscroll
font size
0
reset
how to read this tab
guitar tuner
edit
Autoscroll
slow
fast
+/-
esc
set tempo
stop
This song is in 'D'-tuning. However, whenever blur plays it live it's in Standard tuning. In a recent Gray 
Guitars interview with Graham,he mentioned the guitar was played in Standard tuning on the record. However,
Stephen Street and Co. fooled around with an oscillator that manipulated the speed of the tape machine. 
The guitar track was recorded with the tape machine running faster than usual. When the tape was slowed back 
down to regular speed, it left the guitar in D-tuning (it also made the guitar more wobbly and fat.) 

[Intro]
d|-------------------------|-------------------------|-------------------------|--------------------|
A|-------------------------|-------------------------|-------------------------|--------------------|
F|-------------------------|-------------------------|-------------------------|--------------------|
C|-11b------9b11-----------|-11b------9b11-----------|-11b------9b11-----------|--------------------|
G|-12b---------------------|-12b---------------------|-12b---------------------|--------------------|
D|-------0---------0---0-0-|-------0---------0---0-0-|-------0---------0---0-0-|-0---0-0---0---0-0--|

d|--------------------|
A|-12--------12-------|
F|-13--------13-------|
C|-x---------x--------|4x
G|-11--------11-------|
D|-----0--0------0--0-|

[Verse]
d|----------------------|--------------------|--------------------|----------------------|
A|-12---------10--------|-9---------7--------|-5---------7--------|-12---------12--------|
F|-13---------11--------|-9---------8--------|-6---------8--------|-13---------13--------|
C|-x----------x---------|-x---------x--------|-x---------x--------|-13---------x---------|
G|-11---------9---------|-7---------6--------|-4---------6--------|-11---------11--------|
D|-----(0)--------(0)---|----(0)-------(0)---|----(0)-------(0)---|-----(0)--------(0)---|

d|----------------------|---------------------|----------------------|---------------------------------------|
A|------12h14-----12h14-|----12h14---12-------|---------12----12--12-|---------------------------------------|
F|------13--------13----|----13---------13----|--12-13--11----11--11-|---------------------------------------|
C|------11--------11----|----11------------13-|---------x-----x---x--|-7--7--7--11-11-11--14-14-14--10-10-10-|
G|-0-----------0--------|-0-------------------|--------(9)---(9)-(9)-|-0--0--0--0--0--0---15-15-15--10-10-10-|
D|----------------------|---------------------|----------------------|---------------------------------------|

d|-------------------------------|-------------------------------|
A|-------------------------------|-------------------------------|
F|-------------------------------|-----------------------13b14---|
C|-----11b-----------------------|-------------------------------|
G|-----12b----9b11----9b11--9b11-|---9b11---(9)/14---------------|
D|-0-------0---------------------|-0-----------------------------|

[Verse]
d|----------------------|--------------------|--------------------|----------------------|
A|-12---------10--------|-9---------7--------|-5---------7--------|-12---------12--------|
F|-13---------11--------|-9---------8--------|-6---------8--------|-13---------13--------|
C|-x----------x---------|-x---------x--------|-x---------x--------|-13---------x---------|
G|-11---------9---------|-7---------6--------|-4---------6--------|-11---------11--------|
D|-----(0)--------(0)---|----(0)-------(0)---|----(0)-------(0)---|-----(0)--------(0)---|

d|----------------------|---------------------|----------------------|---------------------------------------|
A|------12h14-----12h14-|----12h14---12-------|---------12----12--12-|---------------------------------------|
F|------13--------13----|----13---------13----|--12-13--11----11--11-|---------------------------------------|
C|------11--------11----|----11------------13-|---------x-----x---x--|-7--7--7--11-11-11--14-14-14--10-10-10-|
G|-0-----------0--------|-0-------------------|--------(9)---(9)-(9)-|-0--0--0--0--0--0---15-15-15--10-10-10-|
D|----------------------|---------------------|----------------------|---------------------------------------|

d|-------------------------------|-------------------------------|
A|-------------------------------|-------------------------------|
F|-------------------------------|-----------------------13b14---|
C|-----11b-----------------------|-------------------------------|
G|-----12b----9b11----9b11--9b11-|---9b11---(9)/14---------------|
D|-0-------0---------------------|-0-----------------------------|

[Instrumental]
d|----------------------|--------------------|--------------------|----------------------|
A|-12---------10--------|-9---------7--------|-5---------7--------|-12---------12--------|
F|-13---------11--------|-9---------8--------|-6---------8--------|-13---------13--------|
C|-x----------x---------|-x---------x--------|-x---------x--------|-13---------x---------|
G|-11---------9---------|-7---------6--------|-4---------6--------|-11---------11--------|
D|-----(0)--------(0)---|----(0)-------(0)---|----(0)-------(0)---|-----(0)--------(0)---|

d|----------------------|---------------------|----------------------|---------------------------------------|
A|------12h14-----12h14-|----12h14---12-------|---------12----12--12-|---------------------------------------|
F|------13--------13----|----13---------13----|--12-13--11----11--11-|---------------------------------------|
C|------11--------11----|----11------------13-|---------x-----x---x--|-7--7--7--11-11-11--14-14-14--10-10-10-|
G|-0-----------0--------|-0-------------------|--------(9)---(9)-(9)-|-0--0--0--0--0--0---15-15-15--10-10-10-|
D|----------------------|---------------------|----------------------|---------------------------------------|

d|-------------------------------|-------------------------------|
A|-------------------------------|-------------------------------|
F|-------------------------------|-----------------------13b14---|
C|-----11b-----------------------|-------------------------------|
G|-----12b----9b11----9b11--9b11-|---9b11---(9)/14---------------|
D|-0-------0---------------------|-0-----------------------------|

[Verse]
d|----------------------|--------------------|--------------------|----------------------|
A|-12---------10--------|-9---------7--------|-5---------7--------|-12---------12--------|
F|-13---------11--------|-9---------8--------|-6---------8--------|-13---------13--------|
C|-x----------x---------|-x---------x--------|-x---------x--------|-13---------x---------|
G|-11---------9---------|-7---------6--------|-4---------6--------|-11---------11--------|
D|-----(0)--------(0)---|----(0)-------(0)---|----(0)-------(0)---|-----(0)--------(0)---|

d|----------------------|---------------------|----------------------|---------------------------------------|
A|------12h14-----12h14-|----12h14---12-------|---------12----12--12-|---------------------------------------|
F|------13--------13----|----13---------13----|--12-13--11----11--11-|---------------------------------------|
C|------11--------11----|----11------------13-|---------x-----x---x--|-7--7--7--11-11-11--14-14-14--10-10-10-|
G|-0-----------0--------|-0-------------------|--------(9)---(9)-(9)-|-0--0--0--0--0--0---15-15-15--10-10-10-|
D|----------------------|---------------------|----------------------|---------------------------------------|

d|--------------------------|
A|--------------------------|
F|--------------------------|
C|-----11b------------------|
G|-----12b----9b11----9b11--|
D|-0-------0----------------|

[Outro]
|------4x-(slow down second half on the 4th time through)|
d|----------------|----------------|----------|----------|
A|----------------|----------------|-5--------|----------|
F|----------------|----------------|-7----8---|-9----9---|
C|-11----14-------|-11----14-------|-6----6---|-9----9---|
G|-0---------11---|-0---------11---|-7----5---|-7----7---|
D|-----------0----|-----------0----|----------|----------|


************************************

| b    Bend
| x    Dead note
| (n)  Ghost note
| h    Hammer-on
| /   
slide

************************************

            
            
Suggest correction
Creating personal tab
Creating personal tab
You can edit any tab online and save it as your Personal.

You can edit, replace or remove any tab part or add personal notes – all changes will be seen only by you.

Personal tabs can be accessed anytime from any device, even offline.
Learn more »
Give kudos to tab author, rate the tab!
1 2 3 4 5
comments
print report bad tab
guest
You may want to rate the tab now too:
select rating
Wanna post a correction for this tab? Suggest correction