Oops, an error
Loading. Please wait.

On The Way To The Club Bass Tab

by Blur
609 views 1 this week
no commentswrite comment
1 2 3 4 5
please rate
add to favorites
launch autoscroll
font size
0
reset
guitar tuner
Autoscroll
slow
fast
+/-
esc
set tempo
stop
Help us to improve Ultimate-Guitar.com Take our survey!
×
Contributor
Difficulty
stylo 27
intermediate
-------------------------------------------------------------------------------
			On The Way To The Club - Blur
-------------------------------------------------------------------------------

Tabbed By : Stylo
e-mail: 

Tuning: Standard

This is a great track of Blur, not difficult and very nice to play... Enjoy !

(The bass line begins at 0:15/0:16)

Intro/Verse x4

G|---------------------------------------------------------------------------|
D|---------------------------------------------------------------------------|
A|------------------------------------------------------------1-1-1-1-1-1-1-1|
E|-1-2-3-3-1-2-3-3-3-3-1-2-3-3-1-2-3-3-3-3-3-2-1-1-1-1-1-1-3-----------------|

Chorus x2

G|---------------------------------------------------------------------------|
D|---------------------------------------------------------------------------|
A|-5-5-5-5-------------------------------------------------------------------|
E|---------5-5-5-5--6-6-6-6-6-6-6-6------------------------------------------|

Bridge 1

G|---------------------------------------------------------------------------|
D|------------------------------------------------------------------6-5-6----|
A|-3-3--5-5-5-5-3-3-3-3------------------------------------------------------|
E|----------------------6-6-6-6-6-6-6-6-5-5-5-5-5-5-5-5-5-5-5-5-5-5----------|

Verse x2

G|---------------------------------------------------------------------------|
D|---------------------------------------------------------------------------|
A|------------------------------------------------------------1-1-1-1-1-1-1-1|
E|-1-2-3-3-1-2-3-3-3-3-1-2-3-3-1-2-3-3-3-3-3-2-1-1-1-1-1-1-3-----------------|

Transition

G|----------|
D|----------|
A|--7\12/7--|
E|----------|

Chorus x2

G|---------------------------------------------------------------------------|
D|---------------------------------------------------------------------------|
A|-5-5-5-5-------------------------------------------------------------------|
E|---------5-5-5-5-6-6-6-6-6-6-6-6-------------------------------------------|

Bridge 2

G|----------------------------------------------------------------------------------------------5|
D|---------------------------------------------------------------------------------------------5-|
A|3-3-5-5-5-5-3-3-3-3---------------------------------1-1-1-1---------3-3-3-3-3-3-3-3-3-3-3-3----|
E|--------------------6-6-6-6-6-6-6-6-5-5-5-5-5-5-5-5---------5-5-5-5----------------------------|

Ending

G|---------------------------------------------------------------------------|
D|---------------------------------------------------------------------------|
A|---------------------------------------------------------------------------|
E|-1-2-3-3-1-2-3-3-3-3-------------------------------------------------------|

End :)

| \  slide down
| / slide up
===============================================================================	
comments
We did not receive enough feedback on this tab! Please rate:
print report bad tab
1 2 3 4 5
I want to post or [tab]
guest
You may want to rate the tab now too:
select rating
Please do not post tabs as comments. Select "correction" instead!