Oops, an error
Loading. Please wait.

Ong Ong Tab

by Blur
100 views 3 this week
no commentswrite comment
1 2 3 4 5
3 more votes to show rating
add to favorites
launch autoscroll
font size
0
reset
how to read this tab
guitar tuner
Autoscroll
slow
fast
+/-
esc
set tempo
stop
Help us to improve Ultimate-Guitar.com Take our survey!
×
Hello everyone!!!This is my first tab so I hope the tab isn't too difficult to understand hehe. This is the 
nice and cheerful solo that Graham plays after every chorus.Managed to figure it out after watching the 
Live.fm performance on YouTube. Enjoy!




e|---------------------------------------------------------------|
B|---------------------------------------------------------------|
G|---------------------------------------------------------------|
D|---5----7--- -10-------12--------14--------15------17----------|
A|-3--5/7---7/10---10/12----12/15-----15/17-----17/19----20--20--|
E|---------------------------------------------------------------|

e|---------------------------------------------------------------|
B|---------------------------------12b13-------------------------|
G|---------------------------------------------------------------|
D|---------------------------------------------------------------|
A|-20--20--19--17--15--19--17--15--------------------------------|
E|---------------------------------------------------------------|



| /  slide up
| b  bend

Hope this helped you out!Cheers! :-)
Suggest correction
Give kudos to tab author, rate the tab!
1 2 3 4 5
comments
print report bad tab
guest
You may want to rate the tab now too:
select rating
Wanna post a correction for this tab? Suggest correction