Oops, an error
Loading. Please wait.

Out Of Time Bass Tab

by Blur
5,474 views 6 this week
no commentswrite comment
1 2 3 4 5
x 4
add to favorites
launch autoscroll
font size
0
reset
guitar tuner
Autoscroll
slow
fast
+/-
esc
set tempo
stop
Help us to improve Ultimate-Guitar.com Take our survey!
×
Author
BLUR
OUT OF TIME
By Joffray “Disco Rock”


INTRO 1 (X2)
						        	 (2nd time)
G-------------------------------------------------------------------|-------|
D-------------------------------------------------------------------|-------|
A—10S---------0--------------0-----------------0-----3-----0----3---|--3--5-|
E---------0-----1----3--0----------1------0------1-----------1------|-------|

Intro 2
G-------2-------------------2---------------0h2-----------2---------------|
D---2------3-----5------2-----3----2-2---2--------2---2------3--5--2------|
A-------------------------------3-------------------3---------------------|
E-------------------------------------------------------------------------|

VERSE 1

Where's the love song?               To set us free
G-------------------------------------------------------------------------|
D----2-------3------------2------------5---------------------------0--5---|
A-------------------------------------------------------------------------|
E-------------------------------------------------------------------------|

Too many people down everything turning the wrong way around.
G----------------------------------------------------------------------5--|
D----2-------3------3------2--------3-------------------5---------7-------|
A----------------3--------------------------------------------------------|
E-------------------------------------------------------------------------|

And I don't know what love will be
G-------------------------------------------------------------------------|
D----2-------3-------3-----2------------5---------------------------------|
A-----------------3-------------------------------------------------------|
E-------------------------------------------------------------------------|

but if we start dreaming now
G-------------------------------------------------------------------------|
D----2-------3------------2------------5----------------------------------|
A-------------------------------------------------------------------------|
E-------------------------------------------------------------------------|

Lord knows we'll never leave the clouds
G---------------------------------------------------------------------5---|
D----2-------3------------2------------5---------------------------7------|
A-------------------------------------------------------------------------|
E-------------------------------------------------------------------------|


CHORUS

And you've been so busy lately that you haven't found the time
G-------------------------------------------------------------------------|
D----2-------3------------2--------3-------------------5------------------|
A-------------------------------------------------------------------------|
E-------------------------------------------------------------------------|


To open up your mind
G-------------------------------------------------------------------------|
D----2-------3------------2--------3-------------------5------------------|
A-------------------------------------------------------------------------|
E-------------------------------------------------------------------------|

And watch the world spinning gently out of time
G-------------------------------------------------------------------------|
D----7---6---5-----3------2-----------------------------------------------|
A-------------------------------------------------------------------------|
E-------------------------------------------------------------------------|

Tell me i'm not dreaming but are we out of time Out of time

G-------------------------------------------------------------------------|
D----2-------3------------2--------3-------------------5----------3-------|
A-------------------------------------------------------------------------|
E-------------------------------------------------------------------------|
We're out of time Out of time Out of time Out of time

G-------------------------------------------------------------------------|
D----5------3------5-----3-----5-----3----5-----3-------------------------|
A--------------------------------------------------------3----------------|
E-------------------------------------------------------------------------|

Joffray “Disco Rock”
Suggest correction
comments
print report bad tab
guest
You may want to rate the tab now too:
select rating
Wanna post a correction for this tab? Suggest correction