Oops, an error
Loading. Please wait.

Popscene Tab

by Blur
37 views 1 this week
no commentswrite comment
1 2 3 4 5
2 more votes to show rating
add to favorites
launch autoscroll
font size
0
reset
how to read this tab
guitar tuner
Autoscroll
slow
fast
+/-
esc
set tempo
stop
Help us to improve Ultimate-Guitar.com Take our survey!
×
Author
Difficulty
intermediate
[Intro]

e|-2-22-------------------------------------------------------------------------|
B|-2-22-------------------------------------------------------------------------|
G|-2-22--(whole intro)----------------------------------------------------------|
D|-2-22-------------------------------------------------------------------------|
A|-2-22-------------------------------------------------------------------------|
E|-2-22-------------------------------------------------------------------------|


[Verse]

e|-2-22----------------------------------------------------------------------|
B|-3-33--1-11-0h1p0-2-222----------------------------------------------------|
G|-2-22-------------2-222--(repeat all verse)--------------------------------|
D|-------2-22-------2-222----------------------------------------------------|
A|-------3-33-------2-222----------------------------------------------------|
E|---------------------------------------------------------------------------|


[Chorus]

e|---2-2--222-2------2-2--222-2----------------------------------------------|
B|---3-3--333-3------3-3--333-3----------------------------------------------|
G|---2-2--222-22-2p0-2-2--222-2222(popscene! Alriiight! Now repeate verse)---|
D|------------------2--------------------------------------------------------|
A|---------------------------------------------------------------------------|
E|---------------------------------------------------------------------------|



************************************

| h   Hammer-on
| p   Pull-off

************************************
Suggest correction
Give kudos to tab author, rate the tab!
1 2 3 4 5
comments
print report bad tab
guest
You may want to rate the tab now too:
select rating
Wanna post a correction for this tab? Suggest correction