Oops, an error
Loading. Please wait.

Pressure On Julian Bass Tab

by Blur
384 views 1 this week
no commentswrite comment
1 2 3 4 5
please rate
add to favorites
launch autoscroll
font size
0
reset
guitar tuner
Autoscroll
slow
fast
+/-
esc
set tempo
stop
Help us to improve Ultimate-Guitar.com Take our survey!
×
Author
Difficulty
intermediate
Artist: Blur 
Song: Pressure on Julian
Album: Modern life is Rubbish (1993)
Tuning: Standard EADG

Great song.
This has been tabbed entirely by ear and it should be 100%
The changes between the verse, bridge and chorus are very fast. 
Try playing it to the music and have fun!!!!:)

Verse (Starts when drums come in)
G------------------555573--|
D-----------------3------5-|
A--------------------------|
E-3/7/3--133331331---------|

G-----------555573--|
D----------3------5-|
A-------------------|
E-133331331---------|

"Here is my violence..."
G-------------------|
D-------------------|
A----------13333531-|
E-133331331---------|

Bridge: "We planned it all..." PLAY X2
G-77755555---------|
D---------55533333-|
A------------------|
E------------------|

Chorus: "Pressure on Julian"
G-555-66-780--|
D-----------8-|
A-------------|
E-------------|
Suggest correction
Give kudos to tab author, rate the tab!
1 2 3 4 5
comments
print report bad tab
guest
You may want to rate the tab now too:
select rating
Wanna post a correction for this tab? Suggest correction