Oops, an error
Loading. Please wait.

Song 2 Bass Tab

version 1
by Blur
130,277 views 81 this week
8 commentsread comments
1 2 3 4 5
x 23
add to favorites
launch autoscroll
font size
0
reset
guitar tuner
Autoscroll
slow
fast
+/-
esc
set tempo
stop
Help us to improve Ultimate-Guitar.com Take our survey!
×
Blur
Song2

[Intro/chorus]
(whoo-hooo part)
tune bass to eflat

G |-----------------------------------|
D |-----------------------------------|
A |-----------------------------------|
Eb|-2-2-2-2--0-0-0-0--5-5/7-9-9-9-9---|


[During chorus]
(after paying the other part twice)play this once

G |------------------------------------------------------------|
D |------------------------------------------------------------|
A |------------------------------------------------------------|
Eb|-2-2-2-2-2-2-2-2-5-5-5-5-5-5-5-5-10-10-10-10-10-10-10-10----|

(after that once go back to the other part)
Suggest correction
comments
print report bad tab
8 comments total. Showing first comments.
-1 reply
RHCP_25 20 Apr 30, 2006 06:34 AM

wat about the solo

+2 reply
Chili's Pepper 10 Jul 28, 2007 11:19 AM

its better if you do the beginning like this:

G|---------------------------------|
D|---------------------------------|
A|--------------------0-0/2-4-4-4-4|
Eb|-2-2-2-2--0-0-0-0---------------|

+1 reply
Chili's Pepper 10 Jul 28, 2007 11:20 AM

^^ that's easier with the fingers ^_^

guest
You may want to rate the tab now too:
select rating
Wanna post a correction for this tab? Suggest correction