Oops, an error
Loading. Please wait.

Song 2 Tab

version 1
by Blur
195,893 views 165 this week
7 commentsread comments
1 2 3 4 5
x 16
add to favorites
launch autoscroll
font size
0
reset
how to read this tab
guitar tuner
Autoscroll
slow
fast
+/-
esc
set tempo
stop
Help us to improve Ultimate-Guitar.com Take our survey!
×
Author
Author/Artist: Blur
Title: Song 2
Transcribed By: (dementia) and Ms. Perfect


Palm mute all.


Tuning (eb A D G B E), (eb, D) Down ~ 10%  
Key: (E + D) -> (E + A#) or (E + D)


----|---------------------------------------------|--|
----|---------------------------------------------|--|
----|-5--5--------------------------17--17-17-17--|--|
----|-x--x-----8-8-8----------------x---x--x--x---|--|
----|-8--8---8-8-8-8---11-11-11-13--15--15-15-15--|--|
----|------------------12-12-12-------------------|--|
          m         m             

[Verse]

Palm mute bridge.

Tuning (eb A D G B E), (eb, D) Down ~ 10%  
Live Tuning (D A D G D D)
Key: (E + A#) or (E + D)


----|---------------------------------------------|--|
----|---------------------------------------------|--|
----|-5--5--------------------------17--17-17-17--|--|
----|-x--x-----8-8-8---10-10-10-----x---x--x--x---|--|
----|-8--8---8-8-8-8---11-11-11-13--15--15-15-15--|--|
----|----------x-x-x------------------------------|--|
          m         m
   

[Verse]

----|-----------------------------------|--|---------|--|---------|--|---------|--|
----|-----------------------------------|--|---------|--|---------|--|---------|--|
----|-----------------------------------|--|---------|--|---------|--|---------|--|
----|-3-3-3--1-1-1--6-6-8---------------|3x|-3-3-3-3-|2x|-6-6-6-6-|2x|---------|4x|
----|-3-3-3--1-1-1--6-6-8-10--10----10--|--|-3-3-3-3-|--|-6-6-6-6-|--|---------|--|
----|-x-x-x--x-x-x--x-x-x-9------9------|--|-x-x-x-x-|--|-x-x-x-x-|--|-5-5-5-5-|--|
  

  Chorus Bass Arranged for Guitar (Repeat main part with bass improv)


----|-------------|--|
----|-------------|--|
----|-13-13-13-13-|--|
----|-------------|--|
----|-11-11-11-11-|--|
----|-------------|--|
   

[Chorus]

----|-------------|--|--------|
----|-------------|--|--------|
----|-17-17-17-17-|--|--------|
----|-------------|--|--------|
----|-------------|--|-11/13--|
----|-------------|--|--------|
   

[Outro]



===================================================================================================

Author/Artist: Blur 
Title: Song 2 Live (Post 2014)


Strum over 2nd pickup.
Acoustic strum in front of 2nd pickup.
Tune at 12th fret.
Back of pick.
No palm mute. 


Tuning (E A D G B E),   Down ~ 10%,  (E, D)  Down ~ 20%



----|-----------------------------------------------------|
----|-----------------------------------------------------|
----|----------------------------------17---17----17------|
----|-15-15----------------------------17---17-17-17-17---|
----|-15-15----------------18----18------------15----15---|
----|-x--x----11-11-11-11-----16----18---------x-----x----|



************************************

x scratch string
/ slide up
m mute

************************************
Suggest correction
comments
print report bad tab
7 comments total. Showing first comments.
0 reply
Saverain 5,335 Jul 02, 2002 12:00 AM, edited on March 19 2014, 03:25 pm

I believe it's played with 2 guitars.

0 reply
NiRvanAcobain 10 Jan 01, 2004 12:00 AM

this is the best song by blur i loved it and wanted to play it on the guitar when i first heard it.

+1 reply
rosshawk11 10 Nov 14, 2005 01:01 PM

it's power cords

guest
You may want to rate the tab now too:
select rating
Wanna post a correction for this tab? Suggest correction