Oops, an error
Loading. Please wait.
67 views 15 this week
no commentswrite comment
1 2 3 4 5
2 more votes to show rating
add to favorites
×
Save as Personal and add changes to this tab that will be seen only by you. Learn more ›
×
You can save this tab as Personal to edit and correct it or add notes. All changes will be seen only by you. Learn more »
launch autoscroll
font size
0
reset
how to read this tab
guitar tuner
backing track
0:00
0:00
edit
Autoscroll
slow
fast
+/-
esc
set tempo
stop
Artist: Blur
Song: Song 2
Album: Blur (1997)

Guitar 1 (Eb Ab Db Gb Bb eb) - 'Graham Coxon - Clean'
Guitar 2 (Eb Ab Db Gb Bb eb) - 'Graham Coxon - Clean, Harmony'
Guitar 3 (Eb Ab Db Gb Bb eb) - 'Optional Guitar - Distortion'

The optional guitar is not present in the studio version. However, I've included it should
     you want to play it. It is also what Coxon plays when the song is played live.

[Intro]
4/4
   Guitar 1
    (E)  E   E   S S E   E   E   S S      E   E   E   Q       E   E   E     (x2)
eb|------------------------------------|------------------------------------|
Bb|o-----------------------------------|-----------------------------------o|
Gb|------11--11--x-x-9---9---9---x-x---|--14--14--16--18------18--18--18----|
Db|------11--11--x-x-9---9---9---x-x---|--14--14--16--18------18--18--18----|
Ab|o-----9---9---x-x-7---7---7---x-x---|--12--12--14--16------16--16--16---o|
Eb|------------------------------------|------------------------------------|

   Gtr 1
     E   E   E   E   E   E   E   E        E   E   E   E   E   E   E   E     (x2)
eb|------------------------------------|------------------------------------|
Bb|o-----------------------------------|-----------------------------------o|
Gb|--14--14--14--14--14--14--14--14----|--14--14--14--14--14--14--14--14----|
Db|--x---x---x---x---x---x---x---x-----|--x---x---x---x---x---x---x---x-----|
Ab|o-12--12--12--12--12--12--12--12----|--12--12--12--12--12--12--12--12---o|
Eb|------------------------------------|------------------------------------|
  |                                    |                                    |
  |Gtr 3                               |                                    |
  |  E   E   E   E   E   E   E   E     |  E   E   E   E   E   E   E   E     |
eb|------------------------------------|------------------------------------|
Bb|o-----------------------------------|-----------------------------------o|
Gb|------------------------------------|------------------------------------|
Db|--4---4---4---4---2---2---2---2-----|--7---7---9---11--11--11--11--11----|
Ab|o-4---4---4---4---2---2---2---2-----|--7---7---9---11--11--11--11--11---o|
Eb|--2---2---2---2---0---0---0---0-----|--5---5---7---9---9---9---9---9-----|

[Verse 1]
   Gtr 1
    (E)  E   E   S S E   E   E   S S      E   E   E   Q       E   E   E     (x4)
eb|------------------------------------|------------------------------------|
Bb|o-----------------------------------|-----------------------------------o|
Gb|------11--11--x-x-9---9---9---x-x---|--14--14--16--18------18--18--18----|
Db|------11--11--x-x-9---9---9---x-x---|--14--14--16--18------18--18--18----|
Ab|o-----9---9---x-x-7---7---7---x-x---|--12--12--14--16------16--16--16---o|
Eb|------------------------------------|------------------------------------|

[Chorus 1]
   Gtr 1
     E   E   E   E   E   E   E   E        E   E   E   E   E   E   E   E     (x3)
eb|------------------------------------|------------------------------------|
Bb|o-----------------------------------|-----------------------------------o|
Gb|--14--14--14--14--14--14--14--14----|--14--14--14--14--14--14--14--14----|
Db|--x---x---x---x---x---x---x---x-----|--x---x---x---x---x---x---x---x-----|
Ab|o-12--12--12--12--12--12--12--12----|--12--12--12--12--12--12--12--12---o|
Eb|------------------------------------|------------------------------------|
  |                                    |                                    |
  |Gtr 3                               |                                    |
  |  E   E   E   E   E   E   E   E     |  E   E   E   E   E   E   E   E     |
eb|------------------------------------|------------------------------------|
Bb|o-----------------------------------|-----------------------------------o|
Gb|------------------------------------|------------------------------------|
Db|--4---4---4---4---2---2---2---2-----|--7---7---9---11--11--11--11--11----|
Ab|o-4---4---4---4---2---2---2---2-----|--7---7---9---11--11--11--11--11---o|
Eb|--2---2---2---2---0---0---0---0-----|--5---5---7---9---9---9---9---9-----|


     E   E   E   E   E   E   E   E        E   E   E   E   E   E   E   E     
eb|------------------------------------|------------------------------------|
Bb|------------------------------------|------------------------------------|
Gb|--14--14--14--14--14--14--14--14----|--14--14--14--14--14--14--14--14----|
Db|--x---x---x---x---x---x---x---x-----|--x---x---x---x---x---x---x---x-----|
Ab|--12--12--12--12--12--12--12--12----|--12--12--12--12--12--12--12--12----|
Eb|------------------------------------|------------------------------------|
  |                                    |                                    |
  |  E   E   E   E   E   E   E   E     |  E   E   E   E   E   E   E   E     |
eb|------------------------------------|------------------------------------|
Bb|------------------------------------|------------------------------------|
Gb|------------------------------------|------------------------------------|
Db|--4---4---4---4---4---4---4---4-----|--7---7---7---7---7---7---7---7-----|
Ab|--4---4---4---4---4---4---4---4-----|--7---7---7---7---7---7---7---7-----|
Eb|--2---2---2---2---2---2---2---2-----|--5---5---5---5---5---5---5---5-----|

     E   E   E   E   E   E   E   E        E   E   E   E   E   E   E   E     
eb|------------------------------------|------------------------------------|
Bb|------------------------------------|------------------------------------|
Gb|--14--14--14--14--14--14--14--14----|--14--14--14--14--14--14--14--14----|
Db|--x---x---x---x---x---x---x---x-----|--x---x---x---x---x---x---x---x-----|
Ab|--12--12--12--12--12--12--12--12----|--12--12--12--12--12--12--12--12----|
Eb|------------------------------------|------------------------------------|
  |                                    |                                    |
  |  E   E   E   E   E   E   E   E     |  E   E   E   E   E   E   E   E     |
eb|------------------------------------|------------------------------------|
Bb|------------------------------------|------------------------------------|
Gb|------------------------------------|------------------------------------|
Db|--12--12--12--12--12--12--12--12----|--12--12--12--12--12--12--12--12----|
Ab|--12--12--12--12--12--12--12--12----|--12--12--12--12--12--12--12--12----|
Eb|--10--10--10--10--10--10--10--10----|--10--10--10--10--10--10--10--10----|


     E   E   E   E   E   E   E   E        E   E   E   E   E   E   E   E     (x2)
eb|------------------------------------|------------------------------------|
Bb|o-----------------------------------|-----------------------------------o|
Gb|--14--14--14--14--14--14--14--14----|--14--14--14--14--14--14--14--14----|
Db|--x---x---x---x---x---x---x---x-----|--x---x---x---x---x---x---x---x-----|
Ab|o-12--12--12--12--12--12--12--12----|--12--12--12--12--12--12--12--12---o|
Eb|------------------------------------|------------------------------------|
  |                                    |                                    |
  |  E   E   E   E   E   E   E   E     |  E   E   E   E   E   E   E   E     |
eb|------------------------------------|------------------------------------|
Bb|o-----------------------------------|-----------------------------------o|
Gb|------------------------------------|------------------------------------|
Db|--4---4---4---4---2---2---2---2-----|--7---7---9---11--11--11--11--11----|
Ab|o-4---4---4---4---2---2---2---2-----|--7---7---9---11--11--11--11--11---o|
Eb|--2---2---2---2---0---0---0---0-----|--5---5---7---9---9---9---9---9-----|

[Verse 2] Same as verse 1
   Gtr 1
    (E)  E   E   S S E   E   E   S S      E   E   E   Q       E   E   E     (x4)
eb|------------------------------------|------------------------------------|
Bb|o-----------------------------------|-----------------------------------o|
Gb|------11--11--x-x-9---9---9---x-x---|--14--14--16--18------18--18--18----|
Db|------11--11--x-x-9---9---9---x-x---|--14--14--16--18------18--18--18----|
Ab|o-----9---9---x-x-7---7---7---x-x---|--12--12--14--16------16--16--16---o|
Eb|------------------------------------|------------------------------------|

[Chorus 2]
   Gtr 1
     E   E   E   E   E   E   E   E        E   E   E   E   E   E   E   E     (x3)
eb|------------------------------------|------------------------------------|
Bb|o-----------------------------------|-----------------------------------o|
Gb|--14--14--14--14--14--14--14--14----|--14--14--14--14--14--14--14--14----|
Db|--x---x---x---x---x---x---x---x-----|--x---x---x---x---x---x---x---x-----|
Ab|o-12--12--12--12--12--12--12--12----|--12--12--12--12--12--12--12--12---o|
Eb|------------------------------------|------------------------------------|
  |                                    |                                    |
  |Gtr 3                               |                                    |
  |  E   E   E   E   E   E   E   E     |  E   E   E   E   E   E   E   E     |
eb|------------------------------------|------------------------------------|
Bb|o-----------------------------------|-----------------------------------o|
Gb|------------------------------------|------------------------------------|
Db|--4---4---4---4---2---2---2---2-----|--7---7---9---11--11--11--11--11----|
Ab|o-4---4---4---4---2---2---2---2-----|--7---7---9---11--11--11--11--11---o|
Eb|--2---2---2---2---0---0---0---0-----|--5---5---7---9---9---9---9---9-----|

     E   E   E   E   E   E   E   E        E   E   E   E   E   E   E   E     
eb|------------------------------------|------------------------------------|
Bb|------------------------------------|------------------------------------|
Gb|--14--14--14--14--14--14--14--14----|--14--14--14--14--14--14--14--14----|
Db|--x---x---x---x---x---x---x---x-----|--x---x---x---x---x---x---x---x-----|
Ab|--12--12--12--12--12--12--12--12----|--12--12--12--12--12--12--12--12----|
Eb|------------------------------------|------------------------------------|
  |                                    |                                    |
  |  E   E   E   E   E   E   E   E     |  E   E   E   E   E   E   E   E     |
eb|------------------------------------|------------------------------------|
Bb|------------------------------------|------------------------------------|
Gb|------------------------------------|------------------------------------|
Db|--4---4---4---4---4---4---4---4-----|--7---7---7---7---7---7---7---7-----|
Ab|--4---4---4---4---4---4---4---4-----|--7---7---7---7---7---7---7---7-----|
Eb|--2---2---2---2---2---2---2---2-----|--5---5---5---5---5---5---5---5-----|

     E   E   E   E   E   E   E   E        E   E   E   E   E   E   E   E     
eb|------------------------------------|------------------------------------|
Bb|------------------------------------|------------------------------------|
Gb|--14--14--14--14--14--14--14--14----|--14--14--14--14--14--14--14--14----|
Db|--x---x---x---x---x---x---x---x-----|--x---x---x---x---x---x---x---x-----|
Ab|--12--12--12--12--12--12--12--12----|--12--12--12--12--12--12--12--12----|
Eb|------------------------------------|------------------------------------|
  |                                    |                                    |
  |  E   E   E   E   E   E   E   E     |  E   E   E   E   E   E   E   E     |
eb|------------------------------------|------------------------------------|
Bb|------------------------------------|------------------------------------|
Gb|------------------------------------|------------------------------------|
Db|--12--12--12--12--12--12--12--12----|--12--12--12--12--12--12--12--12----|
Ab|--12--12--12--12--12--12--12--12----|--12--12--12--12--12--12--12--12----|
Eb|--10--10--10--10--10--10--10--10----|--10--10--10--10--10--10--10--10----|

   Gtr 1
     E   E   E   E   E   E   E   E        E   E   E   E   E   E   E   E     (x4)
eb|------------------------------------|------------------------------------|
Bb|o-----------------------------------|-----------------------------------o|
Gb|--14--14--14--14--14--14--14--14----|--14--14--14--14--14--14--14--14----|
Db|--x---x---x---x---x---x---x---x-----|--x---x---x---x---x---x---x---x-----|
Ab|o-12--12--12--12--12--12--12--12----|--12--12--12--12--12--12--12--12---o|
Eb|------------------------------------|------------------------------------|   [This is what's played on 
  |                                    |                                    |      the studio version.
  |Gtr 2                               |                                    |    You can combine gtr 1 and
  |  E   E   E   E   E   E   E   E     |  E   E   E   E   E   E   E   E     |       gtr 2 if desired]
eb|------------------------------------|------------------------------------|
Bb|o-----------------------------------|-----------------------------------o|
Gb|--18--18--18--18--18--18--18--18----|--18--18--18--18--18--18--18--18----|
Db|--x---x---x---x---x---x---x---x-----|--x---x---x---x---x---x---x---x-----|
Ab|o-16--16--16--16--16--16--16--16----|--16--16--16--16--16--16--16--16---o|
Eb|------------------------------------|------------------------------------|
  |                                    |                                    |
  |Gtr 3                               |                                    |
  |  E   E   E   E   E   E   E   E     |  E   E   E   E   E   E   E   E     |
eb|------------------------------------|------------------------------------|
Bb|o-----------------------------------|-----------------------------------o|
Gb|------------------------------------|------------------------------------|
Db|--4---4---4---4---2---2---2---2-----|--7---7---9---11--11--11--11--11----|
Ab|o-4---4---4---4---2---2---2---2-----|--7---7---9---11--11--11--11--11---o|
Eb|--2---2---2---2---0---0---0---0-----|--5---5---7---9---9---9---9---9-----|

eb|----------|
Bb|----------|
Gb|----------|  [There isn't any specific note played at the end.
Db|----------|      You can just play whatever sounds decent]
Ab|----------|
Eb|----------|


************************************

|  x   Dead note
|  S   Sixteenth note
|  E   Eighth note
|  Q   Quarter note
| (N)  Rest
|o o|  Reprise

************************************

            
            
Suggest correction
Creating personal tab
Creating personal tab
You can edit any tab online and save it as your Personal.

You can edit, replace or remove any tab part or add personal notes – all changes will be seen only by you.

Personal tabs can be accessed anytime from any device, even offline.
Learn more »
Give kudos to tab author, rate the tab!
1 2 3 4 5
comments
print report bad tab
guest
You may want to rate the tab now too:
select rating
Wanna post a correction for this tab? Suggest correction