Oops, an error
Loading. Please wait.
127,582 views 171 this week
12 commentsread comments
1 2 3 4 5
x 80
add to favorites
launch autoscroll
font size
0
reset
guitar tuner
backing track
0:00
0:00
×
Best way to learn
"Song 2"
Autoscroll
slow
fast
+/-
esc
set tempo
stop
Tuning
D# G# C# F#
[Intro]

just drums and then guitar.


[Chorus 1]

Gb|-------------------------------------------------------------------|
Db|-------------------------------------------------------------------|
Ab|----------------0-0-2-4---4-4-4-------------------0-0-2-4---4-4-4--|
Eb|2-2-2-2-0-0-0-0-------------------2-2-2-2-0-0-0-0------------------|

Gb|----------------------------------------------------------------------|
Db|----------------------------------------------------------------------|
Ab|----------------0-0-2-4---4-4-4-------------------0-0-2-4---4-4-4-----|
Eb|2-2-2-2-0-0-0-0-------------------2-2-2-2-0-0-0-0-------------------2-|


[Chorus 2]

Gb|--------------------------------------------------------------------|
Db|--------------------------------------------------------------------|
Ab|----------------0-0-2-4---4-4-4-------------------0-0-2-4---4-4-4---|
Eb|2-2-2-2-0-0-0-0-------------------2-2-2-2-0-0-0-0-------------------|

Gb|---------------------------------------------------------------------------------------------|
Db|--------------------------------4-4-4-4-4-4-4-4-7-7-7-7-7-7-7-7-------------------------2>-6>|
Ab|----------------0-0-2-4---4-4-4---------------------------------5-5-5-5-5-5-5-5-5-5-5-5------|
Eb|2-2-2-2-0-0-0-0------------------------------------------------------------------------------|

Gb|----2---2---2-----------------------2---2---2-----------------------|
Db|4-----4---4---4-----------------4-----4---4---4---------------------|
Ab|----------------0-0-2-4---4-4-4-----------------0-0-2-4---4-4-4-----|
Eb|------------------------------------------------------------------2-|


[Chorus 3]

Gb|--------------------------------------------------------------------|
Db|--------------------------------------------------------------------|
Ab|----------------0-0-2-4---4-4-4-------------------0-0-2-4---4-4-4---|
Eb|2-2-2-2-0-0-0-0-------------------2-2-2-2-0-0-0-0-------------------|

Gb|---------------------------------------------------------------------------------------------|
Db|--------------------------------4-4-4-4-4-4-4-4-7-7-7-7-7-7-7-7-------------------------2>-6>|
Ab|----------------0-0-2-4---4-4-4---------------------------------5-5-5-5-5-5-5-5-5-5-5-5------|
Eb|2-2-2-2-0-0-0-0------------------------------------------------------------------------------|

Gb|----2---2---6-----------------------2---2---6---------------------|
Db|4-----4---4---------------------4-----4---4-----------------------|
Ab|----------------0-0-2-4---4-4-4-----------------0-0-2-4---4-4-4---|
Eb|------------------------------------------------------------------|

Gb|----2---2---6-----------------------2---2---6--------------------| 
Db|4-----4---4---------------------4-----4---4----------------------|
Ab|----------------0-0-2-4---4-4-4-----------------0-0-2-4---4-4-4--|
Eb|----------------------------------------------------------------2|



************************************

| >  Accented note

************************************
Suggest correction
comments
print report bad tab
12 comments total. Showing first comments.
+1 reply
nasher 10 Mar 01, 2003 07:00 PM

this tab is note for note, it is practicly perfect but its a bit confuzing with it all laid out like that

+7 reply
Turoneus 10 Jan 12, 2004 07:00 PM

This is the best tab i found for this song apart for one part im posotive its a slide.
Instead of:
Gb---2-2-2---------
Db-4--4-4-4--------
Ab-----------------
Eb-----------------

I'm sure its:
Gb-----------------
Db-4/7\4/7\4-------
Ab-----------------
Eb-----------------

and tyhe same with the last bit.
Instead of:
Gb---2-2-2---------
Db-4--4-4-6--------
Ab-----------------
Eb-----------------

I'm sure its:
Gb-----------------
Db-4/7\4/7\6-------
Ab-----------------
Eb-----------------

0 reply
bass_man_dan 231 May 06, 2005 08:00 PM

DUDE!
GR8 TAB!
THNX!

guest
You may want to rate the tab now too:
select rating
Wanna post a correction for this tab? Suggest correction