Oops, an error
Loading. Please wait.

Song 2 Bass Tab

version 2
by Blur
120,880 views 126 this week
10 commentsread comments
1 2 3 4 5
excellent!
x 68
add to favorites
launch autoscroll
font size
0
reset
guitar tuner
Tab Pro tools
  • play this tab
  • loop segment
  • change instrument
  • show fretboard
  • metronome
×
Best way to learn
"Song 2"
Autoscroll
slow
fast
+/-
esc
set tempo
stop
Song: Song 2
Artist: Blur
Tuning: Dropped half a step

Intro is just drums and then guitar.

First chorus:
Gb:----------------------------------|
Db:----------------------------------|
Ab:------- 0024-444---------0024-444-|
Eb:22220000---------22220000---------|

Gb:-----------------------------------|
Db:-----------------------------------|
Ab:------- 0024-444---------0024-444--|
Eb:22220000---------22220000---------2|

Second chorus:
Gb:----------------------------------|
Db:----------------------------------|
Ab:------- 0024-444---------0024-444-|
Eb:22220000---------22220000---------|

Gb:------------------------------------------------|
Db:----------------4444444477777777------------2>6>|
Ab:--------0024-444----------------555555555555----|
Eb:22220000----------------------------------------|

Gb:--2-2-2-----------2-2-2-----------|
Db:4--4-4-4--------4--4-4-4----------|
Ab:--------0024-444--------0024-444--|
Eb:---------------------------------2|

Third chorus: 
Gb:----------------------------------|
Db:----------------------------------|
Ab:------- 0024-444---------0024-444-|
Eb:22220000---------22220000---------|

Gb:------------------------------------------------|
Db:----------------4444444477777777------------2>6>|
Ab:--------0024-444----------------555555555555----|
Eb:22220000----------------------------------------|

Gb:--2-2-6-----------2-2-6----------|
Db:4--4-4----------4--4-4-----------|
Ab:--------0024-444--------0024-444-|
Eb:---------------------------------|

Gb:--2-2-6-----------2-2-6-----------| 
Db:4--4-4----------4--4-4------------|
Ab:--------0024-444--------0024-444--|
Eb:---------------------------------2|

I just tabbed out the whole thing cause i couldnt be arsed 
doing all the song order and all that crap.
If you wanna chat or just bitch about me or whatever then
email me at spanking_dude182@hotmail.com
comments
print report bad tab
10 comments total. Showing first comments.
+1 reply
nasher wrote on March 2 2003, 12:00 am

this tab is note for note, it is practicly perfect but its a bit confuzing with it all laid out like that

+7 reply
Turoneus wrote on January 13 2004, 12:00 am

This is the best tab i found for this song apart for one part im posotive its a slide.
Instead of:
Gb---2-2-2---------
Db-4--4-4-4--------
Ab-----------------
Eb-----------------

I'm sure its:
Gb-----------------
Db-4/7\4/7\4-------
Ab-----------------
Eb-----------------

and tyhe same with the last bit.
Instead of:
Gb---2-2-2---------
Db-4--4-4-6--------
Ab-----------------
Eb-----------------

I'm sure its:
Gb-----------------
Db-4/7\4/7\6-------
Ab-----------------
Eb-----------------

0 reply
bass_man_dan wrote on May 7 2005, 12:00 am

DUDE!
GR8 TAB!
THNX!

I want to post or [tab]
guest
You may want to rate the tab now too:
select rating
Please do not post tabs as comments. Select "correction" instead!