Oops, an error
Loading. Please wait.

Song 2 Bass Tab

version 6
by Blur
22,079 views 66 this week
no commentswrite comment
1 2 3 4 5
x 18
add to favorites
launch autoscroll
font size
0
reset
guitar tuner
Autoscroll
slow
fast
+/-
esc
set tempo
stop
Help us to improve Ultimate-Guitar.com Take our survey!
×
Author
Difficulty
Tuning
novice
D A D G B E
SONG 2 by BLUR
DROP D TUNING
Tabbed by TaoK

INTRO:
G--------------|--------------|--------------|--------------|
D----GUITAR----|----GUITAR----|----GUITAR----|----GUITAR----|
A--------------|--------------|--------------|--------------|
D--------------|--------------|--------------|--------------|

WOOHOO!
G------------------|----------------------| X4
D------------------|----------------------|
A------------------|----------------------|
D--3-3-3-3-1-1-1-1-|-6-6-8-10---10-10-10--|


VERSE 1:
G--------------|--------------|--------------|--------------| X2
D----GUITAR----|----GUITAR----|----GUITAR----|----GUITAR----|
A--------------|--------------|--------------|--------------|
D--------------|--------------|--------------|--------------|


CHORUS:
G------------------|----------------------| X3
D------------------|----------------------|
A------------------|----------------------|
D--3-3-3-3-1-1-1-1-|-6-6-8-10---10-10-10--|

G------------------|-----------------|-----------------|-------------------|
D------------------|-----------------|-----------------|---------3---------|
A------------------|-----------------|-4-4-4-4-4-4-4-4-|-4-4-4-4---4-3/10\-|
D--3-3-3-3-3-3-3-3-|-6-6-6-6-6-6-6-6-|-----------------|-------------------|

G------------------|----------------------| X2
D------------------|----------------------|
A------------------|----------------------|
D--3-3-3-3-1-1-1-1-|-6-6-8-10---10-10-10--|


VERSE 2:
G--------------|--------------|--------------|--------------| X2
D----GUITAR----|----GUITAR----|----GUITAR----|----GUITAR----|
A--------------|--------------|--------------|--------------|
D--------------|--------------|--------------|--------------|


CHORUS:
G------------------|----------------------| X3
D------------------|----------------------|
A------------------|----------------------|
D--3-3-3-3-1-1-1-1-|-6-6-8-10---10-10-10--|

G------------------|-----------------|-----------------|-------------------|
D------------------|-----------------|-----------------|---------3---------|
A------------------|-----------------|-4-4-4-4-4-4-4-4-|-4-4-4-4---4-3/10\-|
D--3-3-3-3-3-3-3-3-|-6-6-6-6-6-6-6-6-|-----------------|-------------------|
                                                                                              
G------------------|----------------------| X2
D------------------|----------------------|
A------------------|----------------------|
D--3-3-6-3-6-3-3-3-|-6-6-8-10---10-10-10--|

G----------------|----------------------| X2    |--------|
D----------------|----------------------|       |--------|
A--------------3-|----------------------|       |--------|
D--3-3-6-3-6-3---|-6-6-8-10---10-10-10--|       |-3\-----|
Suggest correction
comments
print report bad tab
guest
You may want to rate the tab now too:
select rating
Wanna post a correction for this tab? Suggest correction