Oops, an error
Loading. Please wait.

Song 2 Bass Tab

version 7
by Blur
24,207 views 31 this week
2 commentsread comments
1 2 3 4 5
accurate
x 7
add to favorites
launch autoscroll
font size
0
reset
guitar tuner
Tab Pro tools
  • play this tab
  • loop segment
  • change instrument
  • show fretboard
  • metronome
×
Best way to learn
"Song 2"
Autoscroll
slow
fast
+/-
esc
set tempo
stop
Difficulty
intermediate
Blur - Song 2
Bass Tab
Tabbed by Keilan
Email: keilan31@hotmail.co.uk

This is 100% correct to how it is played on the album (although on the album there is a 
bass playing the Main riff over Riffs 3 and 4)

Main riff (distorted)
G|----------------------------------------------------|
D|----------------------------------------------------|
A|-8-8-8-8-6-6-6-6------------------------------------|
E|-----------------4-4-6-8-8-8-8----------------------|

Riff 2 (distorted)
G|----------------------------------------|
D|--------------11-x12-------11-11--------|
A|-8-x8--11-x8---------11-11--------------|
E|----------------------------------------|

Riff 3 (clean)
G|---------------------------------------------------|
D|-----6/3-6/3---------------------------------------|
A|-8-8-----------------------------------------------|
E|-------------4-4-6-8-8-8-8-------------------------| X2

Riff 4 (clean)
G|---------------------------------------------------|
D|-----6/3-6/3---------------------------------------|
A|-8-8---------8-10----------------------------------|
E|------------------4-4-6-8-8-8-8--------------------| X2

Order:

(drums and guitar start)
Main riff x4
(no bass in verse)
Main Riff x3
Riff 2
Riff 3
(no bass in verse)
Main Riff x3
Riff 2
Riff 3
Riff 4
comments
print report bad tab
2 comments total.
0 reply
Bassoohaman wrote on July 19 2014, 05:37 pm, edited at 05:59 pm

Riff 4* (clean)G|-------------3-5-----------------------------------|D|-----6/3-------------------------------------------|A|-8-8-----------------------------------------------|E|------------------4-4-6-8-8-8-8--------------------| X2 Tab is good, but I suggest to use this instead Riff 4

0 reply
Bassoohaman wrote on July 19 2014, 06:00 pm

Riff 4 (clean)
G|----------3-5--------------------------------------|
D|------6/3------------------------------------------|
A|-8-8-----------------------------------------------|
E|------------------4-4-6-8-8-8-8--------------------| X2

I want to post or [tab]
guest
You may want to rate the tab now too:
select rating
Please do not post tabs as comments. Select "correction" instead!