Oops, an error
Loading. Please wait.

Song 2 Tab

version 7
by Blur
405,747 views 813 this week
2 commentsread comments
1 2 3 4 5
x 15
add to favorites
launch autoscroll
font size
0
reset
how to read this tab
guitar tuner
Autoscroll
slow
fast
+/-
esc
set tempo
stop
Help us to improve Ultimate-Guitar.com Take our survey!
×
Tuning
D G C F A D
Blur, Song 2.
Tabbed by Sebastian Lapidus, sebaslap@yahoo.com.
  
Drop D tuning: (D,A,D,G,B,E)


[Intro/Verse]

Gr.1 & 2 (Clean Tone)
e|---------------------------------|
B|---------------------------------|
G|-10-10-8-8-8---------------------|
D|-10-10-8-8-8--6-6-8-10--10-10-10-|
A|--8--8-6-6-6--6-6-8-10--10-10-10-|
D|--------------6-6-8-10--10-10-10-|


[Chorus]

(Both guitars distorted)

Gr.1                             
e|------------------------------|
B|------------------------------|
G|------------------------------|
D|-3-3-1-1-1--6-6-8-10-10-10-10-|
A|-3-3-1-1-1--6-6-8-10-10-10-10-|
D|-3-3-1-1-1--6-6-8-10-10-10-10-|

Gr.2
e|-16-| (play this several times)
B|-x--|  
G|-13-|
D|----|
A|----|
D|----|             
         
                 
[Post-Chorus]

Gr.1(distorted)
e|------------------------------|
B|------------------------------|
G|------------------------------|
D|-3-3-1-1-1--6-6-8-10-10-10-10-|
A|-3-3-1-1-1--6-6-8-10-10-10-10-|
D|-3-3-1-1-1--6-6-8-10-10-10-10-|

Gr.2 (with flanger sounds better)
e|---------------------------|
B|---------------------------|
G|---------------------------|
D|---------------------------|
A|---------------------------|
D|-4/1-4/1-4/1--6-6-8-10--10-|


[Outro]

Gr.1(distorted)
e|------------------------------|
B|------------------------------|
G|------------------------------|
D|-3-3-1-1-1--6-6-8-10-10-10-10-|
A|-3-3-1-1-1--6-6-8-10-10-10-10-|
D|-3-3-1-1-1--6-6-8-10-10-10-10-|

Gr.2(also this riff sounds better with flanger)
e|---------------------------|
B|---------------------------|
G|---------------------------|
D|---------------------------|
A|---------------------------|
D|-4/1-4/1-4/1--6-6-8-10--10-|(x2)

then:

e|--------------------------|
B|--------------------------|
G|--------------------------|
D|--------------------------|
A|---------3----------------|
D|-4/1-4/1---6-8-10--10-----|



************************************

| x  Dead note
| /  Slide up

************************************
Suggest correction
comments
print report bad tab
2 comments total.
+1 reply
wolftorin 31 May 09, 2007 02:46 PM

great tab the only 1 that ive found with the infamous 2nd guitar part that isnt the bass line

0 reply
kaboson 10 May 28, 2013 07:29 PM

Well done! I was close... still learning :/ thanks a bunch!

guest
You may want to rate the tab now too:
select rating
Wanna post a correction for this tab? Suggest correction