Oops, an error
Loading. Please wait.

Song 2 Bass Tab

version 8
by Blur
16,860 views 123 this week
2 commentsread comments
1 2 3 4 5
accurate
x 7
add to favorites
launch autoscroll
font size
0
reset
guitar tuner
Autoscroll
slow
fast
+/-
esc
set tempo
stop
Help us to improve Ultimate-Guitar.com Take our survey!
×
Author
Difficulty
novice
-------------------------------------------------------------------------------
                             Song 2 - Blur
-------------------------------------------------------------------------------

Tabbed by: Zaqq
E-mail: zaqqthe@gmail.com

Tuning: standard (EADG)
Tempo: 130 BPM

Notes: 

1. I used the original bass track to transcribe this line.
You can find it here: http://www.youtube.com/watch?v=zhx_GWNRgnk
Also I watched the video with Blur's bass player,
where he describes how to play this song on bass (http://www.youtube.com/watch?v=18TiG3J-6vg).

2. IMPORTANT! This song features 2 bass lines, recorded using overdubbing.
The second one starts to play in the second part of the second chorus,
it plays that notes with slides.
In this tab I combined both tracks into one.


  Riff #1:
   1   2   3   4     1   2   3   4
G|-----------------|------------------|
D|-----------------|------------------|
A|-8-8-8-8-6-6-6-6-|------------------|
E|-----------------|-4-4-6-8~~-8-8-8--|

  Riff #2:
   1   2   3   4     1   2   3   4
G|-----------------|-----------------|
D|-----------------|-----------------|
A|-----------------|-----------------|
E|-1-1-1-1-1-1-1-1-|-4-4-4-4-4-4-4-4-|
   1   2   3   4     1   2   3   4
G|-----------------|-----------------|
D|-----------------|---------6~-/11--|
A|-4-4-4-4-4-4-4-4-|-4-4-4-4---------|
E|-----------------|-----------------|

  Riff #3:
   1   2   3   4     1   2   3   4
G|-----------------|------------------|
D|-----6\3/6\3~~~--|------------------|
A|-8~--------------|------------------|
E|-----------------|-4-4-6-8~~-8-8-8--|
 (slide without plucking the string every time)

  Riff #4:
   1   2   3   4     1   2   3   4
G|-----------------|------------------|
D|-----6\3/6--/10--|------------------|
A|-8~--------------|------------------|
E|-----------------|-4-4-6-8~~-8-8-8--|

  End with:
   1   2   3   4     1   2   3   4
G|-----------------|------------------|
D|-----6\3/6--/10--|------------------|
A|-8~--------------|------------------|
E|-----------------|-4-4-6-8~~-8-8-8\-|
                    (slowly slide down)
 Song structure:

 Chorus 1 (~0:15):
  Riff #1 x 4

 Chorus 2 (~0:46):
  Riff #1 x 3
  Riff #2 x 1
  Riff #3 x 2

 Chorus 3 (~1:26):
  Riff #1 x 3
  Riff #2 x 1
  Riff #3 x 2
  Riff #4 x 1
  End with x 1



************************************

~ - hold this note
/ - slide up
\ - slide down  

************************************
Suggest correction
comments
print report bad tab
2 comments total.
0 reply
Allysonb7001 10 wrote on May 24 2014, 11:55 am

E|-22-000-55-7-999| i belive thats the correct way...

0 reply
Zaqq 589 wrote on May 24 2014, 12:00 pm

No it's not. You notated it a semitone higher, which is incorrect.

guest
You may want to rate the tab now too:
select rating
Wanna post a correction for this tab? Suggest correction