Oops, an error
Loading. Please wait.
163,573 views 270 this week
18 commentsread comments
1 2 3 4 5
x 100
add to favorites
×
Save as Personal and add changes to this tab that will be seen only by you. Learn more ›
×
You can save this tab as Personal to edit and correct it or add notes. All changes will be seen only by you. Learn more »
save as personal
new!
launch autoscroll
font size
0
reset
how to read this tab
guitar tuner
backing track
0:00
0:00
Autoscroll
slow
fast
+/-
esc
set tempo
stop
Author
[Intro Riff]

(clean guitar)

E|------------------------------------------|
B|------------------------------------------|
G|---10-10---8-8-8---13-13-15-17--17-17-17--|
D|---10-10---8-8-8---13-13-15-17--17-17-17--|
A|---8--8----6-6-6---11-11-13-15--15-15-15--|
D|------------------------------------------|(x2)


[Main Riff] 

(with heavy distortion)

E|-------------------------------------|
B|-------------------------------------|
G|-------------------------------------|
D|-3-3-3-3-1-1-1-1-6-6-8-10--10-10-10--|
A|-3-3-3-3-1-1-1-1-6-6-8-10--10-10-10--|
D|-3-3-3-3-1-1-1-1-6-6-8-10--10-10-10--|(x4)


[Verse 1]

(clean guitar)

E|------------------------------------------|
B|------------------------------------------|
G|---10-10---8-8-8---13-13-15-17--17-17-17--|
D|---10-10---8-8-8---13-13-15-17--17-17-17--|
A|---8--8----6-6-6---11-11-13-15--15-15-15--|
D|------------------------------------------|(x4)


[Chorus] 

(with heavy distortion)

E|-------------------------------------|
B|-------------------------------------|
G|-------------------------------------|
D|-3-3-3-3-1-1-1-1-6-6-8-10--10-10-10--|
A|-3-3-3-3-1-1-1-1-6-6-8-10--10-10-10--|
D|-3-3-3-3-1-1-1-1-6-6-8-10--10-10-10--|(x3)

E|-----------------------------------------------------------------|
B|-----------------------------------------------------------------|
G|---------------------------------6-6-6-6-6-6-6-6-6-6-6-6-6-6-6-6-|
D|-3-3-3-3-3-3-3-3-6-6-6-6-6-6-6-6-6-6-6-6-6-6-6-6-6-6-6-6-6-6-6-6-|
A|-3-3-3-3-3-3-3-3-6-6-6-6-6-6-6-6-4-4-4-4-4-4-4-4-4-4-4-4-4-4-4-4-|
D|-3-3-3-3-3-3-3-3-6-6-6-6-6-6-6-6---------------------------------|


[Main Riff] 

(with heavy distortion)

E|-------------------------------------|
B|-------------------------------------|
G|-------------------------------------|
D|-3-3-3-3-1-1-1-1-6-6-8-10--10-10-10--|
A|-3-3-3-3-1-1-1-1-6-6-8-10--10-10-10--|
D|-3-3-3-3-1-1-1-1-6-6-8-10--10-10-10--|(x2)


[Verse 2]

(clean guitar)

E|------------------------------------------|
B|------------------------------------------|
G|---10-10---8-8-8---13-13-15-17--17-17-17--|
D|---10-10---8-8-8---13-13-15-17--17-17-17--|
A|---8--8----6-6-6---11-11-13-15--15-15-15--|
D|------------------------------------------|(x4)


[Chorus] 

(with heavy distortion)

E|-------------------------------------|
B|-------------------------------------|
G|-------------------------------------|
D|-3-3-3-3-1-1-1-1-6-6-8-10--10-10-10--|
A|-3-3-3-3-1-1-1-1-6-6-8-10--10-10-10--|
D|-3-3-3-3-1-1-1-1-6-6-8-10--10-10-10--|(x3)

E|-----------------------------------------------------------------|
B|-----------------------------------------------------------------|
G|---------------------------------6-6-6-6-6-6-6-6-6-6-6-6-6-6-6-6-|
D|-3-3-3-3-3-3-3-3-6-6-6-6-6-6-6-6-6-6-6-6-6-6-6-6-6-6-6-6-6-6-6-6-|
A|-3-3-3-3-3-3-3-3-6-6-6-6-6-6-6-6-4-4-4-4-4-4-4-4-4-4-4-4-4-4-4-4-|
D|-3-3-3-3-3-3-3-3-6-6-6-6-6-6-6-6---------------------------------|


[Main Riff/Outro] 

(with heavy distortion)

E|-------------------------------------|
B|-------------------------------------|
G|-------------------------------------|
D|-3-3-3-3-1-1-1-1-6-6-8-10--10-10-10--|
A|-3-3-3-3-1-1-1-1-6-6-8-10--10-10-10--|
D|-3-3-3-3-1-1-1-1-6-6-8-10--10-10-10--|(x4)
Suggest correction
comments
print report bad tab
18 comments total. Showing first comments.
0 reply
182degrees 10 Jan 01, 2004 07:00 PM

Custard is nice

0 reply
99bucknalllloyd 30 Mar 30, 2004 07:00 PM

it sure is!

0 reply
maxiumspeed66 10 Aug 15, 2004 08:00 PM

awesome is exactly how they play it

guest
You may want to rate the tab now too:
select rating
Wanna post a correction for this tab? Suggest correction