Oops, an error
Loading. Please wait.
13,954 views 999 this week
no commentswrite comment
1 2 3 4 5
x 6
add to favorites
launch autoscroll
font size
0
reset
how to read this tab
guitar tuner
backing track
0:00
0:00
×
Best way to learn
"Song 2"
Autoscroll
slow
fast
+/-
esc
set tempo
stop
Author
Difficulty
Tuning
  follow
novice
D# G# C# F# A# D#
--------------------------------------------------------------------------------------------
                                        SONG 2 - Blur
--------------------------------------------------------------------------------------------
Tabbed by: what.you.doing.
E-mail: ryanengland@live.com

Tuning: D# - G# - C# - F# - A# - D#

After watching the music video for the song and paying close attention to the 
guitarist and the general location of his fingers on the neck of his guitar, this is what 
I've come up with.

0:00 - 0:08

[SILENCE]

0:09 - 0:15

d#|----------------------------------------------------------------------------------------|
A#|----------------------------------------------------------------------------------------|
F#|-x----11---11---x--x--9----9----9----x--x--14----14----16----18--------18----18----18---|
C#|-x----11---11---x--x--9----9----9----x--x--14----14----16----18--------18----18----18---| (REPEAT)
G#|-x----9----9----x--x--7----7----7----x--x--12----12----14----16--------16----16----16---|
D#|-x----9----9----x--x--7----7----7----x--x--12----12----14----16--------16----16----16---|

0:16 - 0:30

d#|-------------------------------------------------------------------------------|
A#|-------------------------------------------------------------------------------|
F#|-------------------------------------------------------------------------------|
C#|-4----4----4----4----2----2----2----2----7----7----9----11-------11---11---11--| (REPEAT)
G#|-4----4----4----4----2----2----2----2----7----7----9----11-------11---11---11--|
D#|-2----2----2----2----0----0----0----0----5----5----7----9--------9----9----9---|

0:31 - 0:45

d#|----------------------------------------------------------------------------------------|
A#|----------------------------------------------------------------------------------------|
F#|-x----11---11---x--x--9----9----9----x--x--14----14----16----18--------18----18----18---|
C#|-x----11---11---x--x--9----9----9----x--x--14----14----16----18--------18----18----18---| (REPEAT)
G#|-x----9----9----x--x--7----7----7----x--x--12----12----14----16--------16----16----16---|
D#|-x----9----9----x--x--7----7----7----x--x--12----12----14----16--------16----16----16---|

0:46 - 0:56

d#|-------------------------------------------------------------------------------|
A#|-------------------------------------------------------------------------------|
F#|-------------------------------------------------------------------------------|
C#|-4----4----4----4----2----2----2----2----7----7----9----11-------11---11---11--| (REPEAT)
G#|-4----4----4----4----2----2----2----2----7----7----9----11-------11---11---11--|
D#|-2----2----2----2----0----0----0----0----5----5----7----9--------9----9----9---|

0:57 - 1:03

d#|---------------------------------------------------------------------------------------------------------|
A#|---------------------------------------------------------------------------------------------------------|
F#|---------------------------------------------------------------------------------------------------------|
C#|-4----4----4----4----4----4----4----4----7----7----7----7----7----7----7----7----12----12----12----12----|
G#|-4----4----4----4----4----4----4----4----7----7----7----7----7----7----7----7----12----12----12----12----|
D#|-2----2----2----2----2----2----2----2----5----5----5----5----5----5----5----5----10----10----10----10----|

e|--------------------------------------------------------------------|
B|--------------------------------------------------------------------|
G|--------------------------------------------------------------------|
D|12----12----12----12----12----12----12----12----12----12----12----12|
A|12----12----12----12----12----12----12----12----12----12----12----12|
E|10----10----10----10----10----10----10----10----10----10----10----10|

1:04 - 1:10

d#|---------------------|
A#|---------------------|
F#|---------------------|
C#|---------------------| (REPEAT)
G#|---------------------|
D#|----2-/5-\2-/5-\2----|

1:11 - 1:24

d#|----------------------------------------------------------------------------------------|
A#|----------------------------------------------------------------------------------------|
F#|-x----11---11---x--x--9----9----9----x--x--14----14----16----18--------18----18----18---|
C#|-x----11---11---x--x--9----9----9----x--x--14----14----16----18--------18----18----18---| (REPEAT)
G#|-x----9----9----x--x--7----7----7----x--x--12----12----14----16--------16----16----16---|
D#|-x----9----9----x--x--7----7----7----x--x--12----12----14----16--------16----16----16---|

1:25 - 1:36

d#|-------------------------------------------------------------------------------|
A#|-------------------------------------------------------------------------------|
F#|-------------------------------------------------------------------------------|
C#|-4----4----4----4----2----2----2----2----7----7----9----11-------11---11---11--| (REPEAT)
G#|-4----4----4----4----2----2----2----2----7----7----9----11-------11---11---11--|
D#|-2----2----2----2----0----0----0----0----5----5----7----9--------9----9----9---|

1:37 - 1:44

d#|---------------------------------------------------------------------------------------------------------|
A#|---------------------------------------------------------------------------------------------------------|
F#|---------------------------------------------------------------------------------------------------------|
C#|-4----4----4----4----4----4----4----4----7----7----7----7----7----7----7----7----12----12----12----12----|
G#|-4----4----4----4----4----4----4----4----7----7----7----7----7----7----7----7----12----12----12----12----|
D#|-2----2----2----2----2----2----2----2----5----5----5----5----5----5----5----5----10----10----10----10----|

e|--------------------------------------------------------------------|
B|--------------------------------------------------------------------|
G|--------------------------------------------------------------------|
D|12----12----12----12----12----12----12----12----12----12----12----12|
A|12----12----12----12----12----12----12----12----12----12----12----12|
E|10----10----10----10----10----10----10----10----10----10----10----10|

1:44 - 1:47

d#|---------------------|
A#|---------------------|
F#|---------------------|
C#|---------------------| (REPEAT)
G#|---------------------|
D#|----2-/5-\2-/5-\2----|

1:48 - 1:59

d#|------------------------|
A#|------------------------|
F#|------------------------|
C#|------------------------| (REPEAT)
G#|------------------------|
D#|----2-/5-\2-/5----9\----|

2:00 - 2:01

[SILENCE]

************************************

| /   slide up
| \   slide down
| h   hammer-on
| p   pull-off
| ~   vibrato
| +   harmonic
| x   Mute note
| b   Bend
| pb  Pre-bend
| br  Bend release
| pbr Pre-bend release
| brb Bend release bend

************************************
Suggest correction
comments
print report bad tab
guest
You may want to rate the tab now too:
select rating
Wanna post a correction for this tab? Suggest correction