Oops, an error
Loading. Please wait.

Stereotypes Bass Tab

version 1
version 1

Whole song

Interactive

by Blur
1,908 views 1 this week
no commentswrite comment
1 2 3 4 5
please rate
add to favorites
launch autoscroll
font size
0
reset
guitar tuner
Autoscroll
slow
fast
+/-
esc
set tempo
stop
Help us to improve Ultimate-Guitar.com Take our survey!
×
Author
I learnt this by ear and this is my first tab so bare with me it might not be right but 
what i play and i think it sounds alright!!!

Blur Rock!!!

Standard Tuning

Intro/(main riff)

G:--------------------------------:
D:-----/9-7-9/--------------------:  x2
A:----------------------/9-5-0----:
E:--5-------------0-2-------------:

3rd time (play once)

G:--------------------------------:
D:-----/9-7-9/--------------------:  x1
A:---------------------5-2p02-----:
E:--5-------------0-2-------------:

G:--------------------------------:
D:-----/9-7-9/--------------------:  x1
A:----------------------/9-5-0----:
E:--5-------------0-2-------------:


Verses

G:--------------------------------:
D:-----/9-7-9/--------------------:  x1
A:---------------------5-2p02-----:
E:--5-------------0-2-------------:

G:--------------------------------:
D:-----/9-7-9/--------------------:  x1
A:---------------------5-2-5------:
E:--5-------------0-2-------------:

Then

G:-----------------------------------:
D:-----66-----55-----44/7-7---7------:  x1
A:--------------------------9--------:
E:-44-----33-----22------------------:

Play verse again

Then

G:------------------------------------:
D:------77--7-------77----------------:  x1
A:------------------------------------:
E:--55----5-----55-----5-6------------:

Main riff

Chorus part

G:--------------------------------------------------------:
D:--------------------------------------------------------:  x1
A:-------7777------7777--------44--444---4-55---5--77---7-:
E:--4444------7777-------7777----7----7------5-------7----:


Solo

G:----------------------------------------------------------------:
D:--------------------------------------------44--44------2-4/----:  x1
A:-------7777------7777--------7777---------------------4---------:
E:--4444------7777-------7777--------3333--22-22-----2------------:

Break!!!

G:---------------------------------------:
D:----- 77---------77--------------------:  x1
A:---------------------------------------:
E:--55----55-----55-----55-66------------:


Main riff

Chorus

Main riff

Chorus / Ending

G:---------------------------------------------------------------:
D:---------------------------------------------------------------:
A:-------7777------7777--------44--444---4-55---5--77---7-99---9-:
E:--4444------7777-------7777----7----7------5-------7-------9---:

G:-----------------------:
D:-----------------------:
A:-12-----12/14----------:
E:----10-----------------:

Ok thats it!!!

Sorry if it's not in the right order, Just listen to the song and figure it out!!!

Enjoy cya!!!
Suggest correction
Give kudos to tab author, rate the tab!
1 2 3 4 5
comments
print report bad tab
guest
You may want to rate the tab now too:
select rating
Please do not post tabs as comments. Select "correction" instead!