Oops, an error
Loading. Please wait.

Tender Bass Tab

version 1
version 1

Whole song

Interactive

by Blur
5,876 views 9 this week
no commentswrite comment
1 2 3 4 5
excellent!
x 3
add to favorites
launch autoscroll
font size
0
reset
guitar tuner
Autoscroll
slow
fast
+/-
esc
set tempo
stop
Help us to improve Ultimate-Guitar.com Take our survey!
×
Author
ARTIST: Blur
SONG: Tender
ALBUM: 13 (1999)
BASSIST: Alex James
-----------------------------------------|
-----------------------------------------|
Originally played with double bass.
Sustain every note.
Standard tuning.
Rate and comment.
All corrections considered.
-----------------------------------------|
-----------------------------------------|

Intro:

G|------------------|
D|------------------|
A|------------------|
E|-5----5----5----5-|

Verse A (Oh my baby...):

G|---------------------------------------|
D|---------------------------------------|
A|---------------------------------------|
E|-5----5----5----5----0----0----5----5--|

Verse B:

G|------------------|
D|------------------|
A|------------------|
E|-5----5----3----5-|

Chorus:

G|---------------------------------------|
D|---------------------------------------|
A|-----------5----3--------------4----5--|
E|-5----5--------------5----5------------|

Post Chorus:

G|--------|
D|--------|
A|-4----5-|
E|--------|

-----------------------------------------|
-----------------------------------------|
(Bass Enters at 0.26)
Intro       x1
Verse A     x2
Verse B     x4
Chorus      x2
Post Chorus x3
Verse B     x1
Verse A     x2
Verse B     x4
Chorus      x2
Post Chorus x3
Verse B     x1
Verse A     x2
Verse B     x6
Chorus      x2
Post Chorus x3
Verse B     x1
Verse A     (Fade)
-----------------------------------------|
-----------------------------------------|
| /  slide up
| \  slide down
| h  hammer-on
| p  pull-off
| ~  vibrato
| +  harmonic
| x  mute note
| s  slap note
Suggest correction
Give kudos to tab author, rate the tab!
1 2 3 4 5
comments
print report bad tab
guest
You may want to rate the tab now too:
select rating
Wanna post a correction for this tab? Suggest correction