Oops, an error
Loading. Please wait.

The Puritan Bass Tab

by Blur
241 views 1 this week
no commentswrite comment
1 2 3 4 5
2 more votes to show rating
add to favorites
launch autoscroll
font size
0
reset
guitar tuner
Autoscroll
slow
fast
+/-
esc
set tempo
stop
Help us to improve Ultimate-Guitar.com Take our survey!
×
Author
Artist: Blur
Song: The Puritan
Year of release: 2012
Bassist: Alex James

Awesome new song from Blur!!!!

This is a bit easy for one Alex James' bass lines so feel free to add your own 
variations when you play, but this is basicly how he plays it in the song :)

(Bass comes in when Damon sings: "Because the flash, of a blade...")
G|--------------------|
D|--------------------|
A|--2-2222----5-5555--|
E|--------------------|

Chorus (really heavy synth bit)
G|----------------------------------|
D|----------------------------------|
A|---------------/5555555500000000--|
E|--3-3333-333333-------------------|

Verse
G|--------------------|
D|--------------------|
A|-----------5-5--5-5-|
E|--3-3--3-3----------|

Bridge
G|--------------------|
D|--------------------|
A|--2-2222----5-5555--|
E|--------------------|

Blur, pleeeeaaaaaase make a new album!!!!
Suggest correction
Give kudos to tab author, rate the tab!
1 2 3 4 5
comments
print report bad tab
guest
You may want to rate the tab now too:
select rating
Wanna post a correction for this tab? Suggest correction