Oops, an error
Loading. Please wait.

Theres No Other Way Tab

version 1
version 1

Whole song

Interactive

by Blur
42,478 views 87 this week
2 commentsread comments
1 2 3 4 5
x 7
add to favorites
launch autoscroll
font size
0
reset
how to read this tab
guitar tuner
Autoscroll
slow
fast
+/-
esc
set tempo
stop
Help us to improve Ultimate-Guitar.com Take our survey!
×
Author
Song: There's No Other Way
Artist: Blur
Album: ?
Transcribed by: Eric Tranvinh
E-mail: fookwanfoo@hotmail.com


Questions? Send an e-mail.

Standard tuning


[Intro/lead] guitar riff

e|-------------------------------------------------------------------|
B|---------12-12--------14----12\------------3-----------5---3--2----|
G|---------12-12--------14----12\------\3--3-3-----------5---2--2----|
D|-----/14-------12-h14----------------\3--3-------3-h5------2--2----|
A|-----/14-----------------------------------------------------------|
E|-------------------------------------------------------------------|


[Verse] Riff
Lead guitar

e|-----------------------------------2--2--2-------------------------|
B|--------5--5-x-3--------2h3p2------3--3--4--------2h3p2------------|
G|--------4--4-x-2--------2----------2--2--2--------2----------------|
D|--2-----2--2-x-0---2-h4-4-----/4---4--4--4---2-h4-4----------------|
A|------------------------------/2---------2-------------------------|
E|-------------------------------------------------------------------|

Verse Riff
Other guitar (accompanies lead guitar)

e|-----------------------------------2--2--2-------------------------|
B|--5-----5--------------------------3--3--4-------------------------|
G|--4-----4--------------------------2--2--2-------------------------|
D|--2-----2---------------------/4---4--4--4-------------------------|
A|------------------------------/2---------2-------------------------|
E|-------------------------------------------------------------------|


[Chorus] Riff (both guitars)

e|--------------------------3----5-------3-----5--------|------------|
B|--------9---x--7----------3----5-------3-----5-----9--|-9--9-10-9--|
G|--------9---x--7----------4----6-------4-----6-----9--|-9--9-9--9--|
D|--------9---x--7----------5----7-------5-----7-----9--|-9--9-9--9--|
A|---7----7---x--5----------5----7-------5-----7-----7--|------------|
E|---0-----------------3----3--X-5-------3-----5-----0--|------------|

e|--------------------------3----5-------3-----5---------------------|
B|--------9---x--7----------3----5-------3-----5-----9----9----------|
G|--------9---x--7----------4----6-------4-----6-----9----9----------|
D|--------9---x--7----------5----7-------5-----7-----9----9----------|
A|---7----7---x--5----------5----7-------5-----7-----7----7----------|
E|---0-----------------3----3--X-5-------3-----5-----0---------------|


[Interlude]

e|-------------------------------------------------------------------|
B|------------0------0-----------2h3p2-------------------------------|
G|---7\4/7-------0-------0---2-2-------------------------------------|
D|-------------------------------------------------------------------|
A|-------------------------------------------------------------------|
E|-------------------------------------------------------------------|


[Outro]

e|---12-12--12-12----10---10-------------7---7----10---10-------------|
B|---12-12--12-12----10---10-------------7---7----10---10-------------|
G|---12h13--13-13----11---11---11h12p11--8---8----11---11-------------|(repeated)
D|---14-14--14-14----12---12---12--------9---9----12---12-------------|
A|---14-14--14-14----12---12---12--------9---9----12---12-------------|
E|---12-14--12-12----10---10---10--------7---7----10---10-------------|

e|---12-------------------------|
B|---12-------------------------|
G|---12h13----------------------|
D|---14-------------------------|
A|---14-------------------------|
E|---12-------------------------|


************************************

h = hammer-on
p = pull-off
/ = slide up
\ = slide down

************************************
Suggest correction
comments
print report bad tab
2 comments total.
-2 reply
musicismyradar 50 Jul 31, 2002 12:00 AM

Intro:

E ---------------------5-5---------|
B -(5)-/12-14-12-12\-3-----5-5-5---|
G -(5)-/12-14-12-12\-3-----5-7-6---|
D ---------------------------------|
A----------------------------------|
E ---------------------------------|

0 reply
afc16 31 May 17, 2007 06:14 AM

good tab, quite accurate. musicismyradar, that's nowhere near

guest
You may want to rate the tab now too:
select rating
Wanna post a correction for this tab? Suggest correction