Oops, an error
Loading. Please wait.

Theres No Other Way bass

version 2
version 2

Whole song

  • Mine's the only full version. The other tabs are i... Show more

Interactive

by Blur
19 views 1 this week
no commentswrite comment
1 2 3 4 5
2 more votes to show rating
add to favorites
×
Save as Personal and add changes to this tab that will be seen only by you. Learn more ›
×
You can save this tab as Personal to edit and correct it or add notes. All changes will be seen only by you. Learn more »
launch autoscroll
font size
0
reset
guitar tuner
backing track
0:00
0:00
edit
Autoscroll
slow
fast
+/-
esc
set tempo
stop
About this tab version
Mine's the only full version. The other tabs are incomplete and the notes are completely wrong on most of them. Was this info helpful? Yes No
[Intro/Main Riff]
G|------------7---------7--------7-------------------------------|
D|-----------------9--------9-----------5---5---5----5h7---------|
A|---7--7--7----------------------------------------------5-6--7-|
E|---------------------------------------------------------------|

"OOOHH" part 
G|-------------------7--------------------------------------------|
D|----------------------------------9----9------------------------|
A|----7---7---5---5---------------------------5-6-7---------------|
E|-----------------------5h--7--7---------------------------------|

"You're taking the fun"... Same as intro 
G|------------7---------7--------7-------------------------------|
D|-----------------9--------9-----------5---5---5----5h7---------|
A|---7--7--7----------------------------------------------5-6--7-|
E|---------------------------------------------------------------|

[Chorus] 
"There's no other way"
G|----------------------------------------------------------------|
D|-----------------------5--5----5h7--7-------7-------------------|
A|---7--7----0h5---5----------5----------7------------------------|
E|----------------------------------------------------------------|

"All that you can do is watch them play"

G|-----------------------------------------------------------------|
D|--5-5-5--5---7--7--7--7------------------------------------------|
A|---------------------------7----7--------------------------------|
E|-----------------------------------------------------------------|

[Solo/Bridge thing]
G|----------7---7---7---------------------------------------------|
D|------------9--9----9/5----5--5h7-------------------------------|
A|------------------------------------7---------------------------|
E|----------------------------------------------------------------|

[Outro]
    E                 D
G|-----------------------7---7---------------------------------------|
D|-------------------------9---9-------------------------------------|
A|--5h7-7-7--5h7-7-7-------------------------------------------------|
E|-------------------------------------------------------------------|

    B           D
G|-------------------------------------------------------------------|
D|-------9--------------12-------------------------------------------|
A|-------------------------------------------------------------------|
E|--7---------7/10---------------------------------------------------|

(Last 3 notes)
G|-------------------------------------------------------------|
D|-------------------------------------------------------------|
A|---5--6--7~--------------------------------------------------|
E|-------------------------------------------------------------|


************************************

| h  Hammer-on
| /  Slide up
| ~  Vibrato

************************************
Suggest correction
Creating personal tab
Creating personal tab
You can edit any tab online and save it as your Personal.

You can edit, replace or remove any tab part or add personal notes – all changes will be seen only by you.

Personal tabs can be accessed anytime from any device, even offline.
Learn more »
Give kudos to tab author, rate the tab!
1 2 3 4 5
comments
print report bad tab
guest
You may want to rate the tab now too:
select rating
Wanna post a correction for this tab? Suggest correction