Oops, an error
Loading. Please wait.

Theres No Other Way Tab

version 3
version 3

Whole song

Interactive

by Blur
7,511 views 15 this week
no commentswrite comment
1 2 3 4 5
please rate
add to favorites
launch autoscroll
font size
0
reset
how to read this tab
guitar tuner
Tab Pro tools
  • play this tab
  • loop segment
  • change instrument
  • show fretboard
  • metronome
×
Best way to learn
"Theres No Other Way"
Autoscroll
slow
fast
+/-
esc
set tempo
stop
Title: theres no other way
artist: blur

this is a very accurate version of the song, please rate it.
The song is in standard tuning (EADGBE).

/ = slide up 
\ = slide down
h = hammer on
p = pull off
() = ghost note
br = bend and release

intro


E---------------------------|------------------------|
B------------12h14--14--12\-|---------3h5--5--3------|
G--/14--14---12h14------12\-|-/5--5---3h5-----3---5--|
D--/14--14------------------|-/5--5---------------5--|
A---------------------------|------------------------|
E---------------------------|------------------------|


E---------------------------|------------------------|
B------------12h14--14--12--|---------3h5--5--3------|
G--/14--14---12h14------12\-|-/5--5---3h5-----3---5--|
D--/14--14------------------|-/5--5---------------5--|
A---------------------------|------------------------|
E---------------------------|------------------------|


E---------------------------|------------------------|
B------------12h14--14--12--|---------3h5--5--3------|
G--/14--14---12h14------12\-|-/5--5---3h5-----3---5--|
D--/14--14------------------|-/5--5---------------5--|
A---------------------------|------------------------|
E---------------------------|------------------------|


E---------------------------|------------------------|
B------------12h14--14--12--|---------3h5--5--3------|
G--/14--14---12h14------12\-|-/5--5---3h5-----3---5--|
D--/14--14------------------|-/5--5---------------5--|
A---------------------------|------------------------|
E---------------------------|------------------------|



the next part of the intro is the main riff used in the song. the song is based around the chords A and G. 

E----------------------|------------------------|
B--------5-5--5--------|---------5-5--5---------|
G--6--6--6-6--6--6h7p6-|-6--6/8--6-6--6--6h7p6--|
D--7--7--7-7--7--------|-7--7/9--7-7--7---------|
A--7--7----------------|-7--7/9-----------------|
E----------------------|------------------------|


E----------------------|------------------------|
B--------5-5--5--------|---------5-5--5---------|
G--6--6--6-6--6--6h7p6-|-6--6/8--6-6--6--6h7p6--|
D--7--7--7-7--7--------|-7--7/9--7-7--7---------|
A--7--7----------------|-7--7/9-----------------|
E----------------------|------------------------|

verse


 'your taking the fun out of everything'
E----------------------|------------------------|
B--------5-5--5--------|---------5-5--5---------|
G--6--6--6-6--6--6h7p6-|-6--6/8--6-6--6--6h7p6--|
D--7--7--7-7--7--------|-7--7/9--7-7--7---------|
A--7--7----------------|-7--7/9-----------------|
E----------------------|------------------------|


   'making me run,      when i dont want to think 
E----------------------|------------------------|
B--------5-5--5--------|---------5-5--5---------|
G--6--6--6-6--6--6h7p6-|-6--6/8--6-6--6--6h7p6--|
D--7--7--7-7--7--------|-7--7/9--7-7--7---------|
A--7--7----------------|-7--7/9-----------------|
E----------------------|------------------------|


 'your taking the fun out of everything'
E----------------------|------------------------|
B--------5-5--5--------|---------5-5--5---------|
G--6--6--6-6--6--6h7p6-|-6--6/8--6-6--6--6h7p6--|
D--7--7--7-7--7--------|-7--7/9--7-7--7---------|
A--7--7----------------|-7--7/9-----------------|
E----------------------|------------------------|


  'i dont want to think at all' 
E----------------------|------------------------|
B--------5-5--5--------|---------5-5--5---------|
G--6--6--6-6--6--6h7p6-|-6--6/8--6-6--6--6h7p6--|
D--7--7--7-7--7--------|-7--7/9--7-7--7---------|
A--7--7----------------|-7--7/9-----------------|
E----------------------|------------------------|

chorus

there is a slight variation in the riff but is still based on the same chords.


 'theres no other way, theres no other way 
E--------------------|-----------------------|
B------------5-5--5--|------------5--5-5-----|
G------6--6--6-6--6--|----6--6/8--6--6-6-----|
D------7--7--7-7--7--|----7--7/9--7--7-7-----|
A------7--7----------|----7--7/9-------------|
E--------------------|-----------------------|


    all you can do is watch them play 
E--------------------|------------------|
B------------5-5--5--|------------5--5--|
G------6--6--6-6--6--|----6--6/8--6--6--|
D------7--7--7-7--7--|----7--7/9--7--7--|
A------7--7----------|----7--7/9--------|
E--------------------|------------------|


 'theres no other way, theres no other way 
E--------------------|-----------------------|
B------------5-5--5--|------------5--5-5-----|
G------6--6--6-6--6--|----6--6/8--6--6-6-----|
D------7--7--7-7--7--|----7--7/9--7--7-7-----|
A------7--7----------|----7--7/9-------------|
E--------------------|-----------------------|


    all you can do is watch them play 
E--------------------|------------------|
B------------5-5--5--|------------5--5--|
G------6--6--6-6--6--|----6--6/8--6--6--|
D------7--7--7-7--7--|----7--7/9--7--7--|
A------7--7----------|----7--7/9--------|
E--------------------|------------------|


interlude


E-----------------------------------------|
B-----------------------------------------|
G---6h7p6----------8----------6h7p6-------|
D----------7--7/9-----9\7--7--------------|
A-----------------------------------------|
E-----------------------------------------|

now it goes back to the same riff used in the intro but is only played twice.


E---------------------------|------------------------|
B------------12h14--14--12--|---------3h5--5--3------|
G--/14--14---12h14------12\-|-/5--5---3h5-----3---5--|
D--/14--14------------------|-/5--5---------------5--|
A---------------------------|------------------------|
E---------------------------|------------------------|


E---------------------------|------------------------|
B------------12h14--14--12--|---------3h5--5--3------|
G--/14--14---12h14------12\-|-/5--5---3h5-----3---5--|
D--/14--14------------------|-/5--5---------------5--|
A---------------------------|------------------------|
E---------------------------|------------------------|



verse


 'your taking the fun out of everything'
E----------------------|------------------------|
B--------5-5--5--------|---------5-5--5---------|
G--6--6--6-6--6--6h7p6-|-6--6/8--6-6--6--6h7p6--|
D--7--7--7-7--7--------|-7--7/9--7-7--7---------|
A--7--7----------------|-7--7/9-----------------|
E----------------------|------------------------|


  your making it clear,   when i dont want to think 
E----------------------|------------------------|
B--------5-5--5--------|---------5-5--5---------|
G--6--6--6-6--6--6h7p6-|-6--6/8--6-6--6--6h7p6--|
D--7--7--7-7--7--------|-7--7/9--7-7--7---------|
A--7--7----------------|-7--7/9-----------------|
E----------------------|------------------------|


 'your taking me up when i dont want to go up anymore 
E----------------------|---------------------------|
B--------5-5--5--------|---------5-5--5------------|
G--6--6--6-6--6--6h7p6-|----6--6/8--6-6--6--6h7p6--|
D--7--7--7-7--7--------|----7--7/9--7-7--7---------|
A--7--7----------------|----7--7/9-----------------|
E----------------------|---------------------------|


  'i dont want to think at all' 
E----------------------|------------------------|
B--------5-5--5--------|---------5-5--5---------|
G--6--6--6-6--6--6h7p6-|-6--6/8--6-6--6--6h7p6--|
D--7--7--7-7--7--------|-7--7/9--7-7--7---------|
A--7--7----------------|-7--7/9-----------------|
E----------------------|------------------------|

chorus

this time it's only played once.


'theres no other way, theres no other way 
E--------------------|-----------------------|
B------------5-5--5--|------------5--5-5-----|
G------6--6--6-6--6--|----6--6/8--6--6-6-----|
D------7--7--7-7--7--|----7--7/9--7--7-7-----|
A------7--7----------|----7--7/9-------------|
E--------------------|-----------------------|


    all you can do is watch them play 
E--------------------|------------------|
B------------5-5--5--|------------5--5--|
G------6--6--6-6--6--|----6--6/8--6--6--|
D------7--7--7-7--7--|----7--7/9--7--7--|
A------7--7----------|----7--7/9--------|
E--------------------|------------------|

interlude

a longer interlude is played, this time you play it 4 times.



interlude


E-----------------------------------------|
B-----------------------------------------|
G---6h7p6----------8----------6h7p6-------|
D----------7--7/9-----9\7--7--------------|
A-----------------------------------------|
E-----------------------------------------|


E---------------------------|------------------------|
B------------12h14--14--12--|---------3h5--5--3------|
G--/14--14---12h14------12\-|-/5--5---3h5-----3---5--|
D--/14--14------------------|-/5--5---------------5--|
A---------------------------|------------------------|
E---------------------------|------------------------|


E---------------------------|------------------------|
B------------12h14--14--12--|---------3h5--5--3------|
G--/14--14---12h14------12\-|-/5--5---3h5-----3---5--|
D--/14--14------------------|-/5--5---------------5--|
A---------------------------|------------------------|
E---------------------------|------------------------|

   'ahhh..............'        'what you play......'
E---------------------------|------------------------|
B------------12h14--14--12--|---------3h5--5--3------|
G--/14--14---12h14------12\-|-/5--5---3h5-----3---5--|
D--/14--14------------------|-/5--5---------------5--|
A---------------------------|------------------------|
E---------------------------|------------------------|

   'ahhh..............'        'what you play......'
E---------------------------|------------------------|  
B------------12h14--14--12--|---------3h5--5--3------|
G--/14--14---12h14------12\-|-/5--5---3h5-----3---5--|
D--/14--14------------------|-/5--5---------------5--|
A---------------------------|------------------------|
E---------------------------|------------------------|


a second guitar is required for the next part of the song. guitar 1 plays the main riff used in the verse.
guitar 2 plays the lead.


                 gtr 2      |---------------------12\*-|     * = slow slide
                            |--------------------------|
                            |--------------------------|
                            |--------------------------|
                            |--------------------------|
                            |--------------------------|


gtr 1

E----------------------|------------------------|
B--------5-5--5--------|---------5-5--5---------|
G--6--6--6-6--6--6h7p6-|-6--6/8--6-6--6--6h7p6--|
D--7--7--7-7--7--------|-7--7/9--7-7--7---------|
A--7--7----------------|-7--7/9-----------------|
E----------------------|------------------------|


gtr 2

E----------------------|--------------------------|
B----------------------|--------------------------|
G----------------------|--------------------------|
D--9--7----------------|--------------------------|
A----------------------|--------------------------|
E----------------------|--------------------------|

gtr 1

E----------------------|------------------------|
B--------5-5--5--------|---------5-5--5---------|
G--6--6--6-6--6--6h7p6-|-6--6/8--6-6--6--6h7p6--|
D--7--7--7-7--7--------|-7--7/9--7-7--7---------|
A--7--7----------------|-7--7/9-----------------|
E----------------------|------------------------|

gtr 2

E----------------------|--------------------------|
B----------------------|--------------------------|
G---6br(8)6br(8)6br(8)-|--4-----------------------|
D----------------------|-------------------9------|
A----------------------|--------------------------|
E----------------------|--------------------------|


gtr 1

E----------------------|------------------------|
B--------5-5--5--------|---------5-5--5---------|
G--6--6--6-6--6--6h7p6-|-6--6/8--6-6--6--6h7p6--|
D--7--7--7-7--7--------|-7--7/9--7-7--7---------|
A--7--7----------------|-7--7/9-----------------|
E----------------------|------------------------|


gtr 2


E------------------------------------------------|
B------------------------------------------------|
G--11br(13)----11br(13)----11br(13)br(13)---9----|
D------------------------------------------------|
A------------------------------------------------|
E------------------------------------------------|


it goes back to 1 guitar again now.



E----------------------|------------------------|
B--------5-5--5--------|---------5-5--5---------|
G--6--6--6-6--6--6h7p6-|-6--6/8--6-6--6--6h7p6--|
D--7--7--7-7--7--------|-7--7/9--7-7--7---------|
A--7--7----------------|-7--7/9-----------------|
E----------------------|------------------------|


E----------------------|------------------------|
B--------5-5--5--------|---------5-5--5---------|
G--6--6--6-6--6--6h7p6-|-6--6/8--6-6--6--6h7p6--|
D--7--7--7-7--7--------|-7--7/9--7-7--7---------|
A--7--7----------------|-7--7/9-----------------|
E----------------------|------------------------|


chorus


 'theres no other way, theres no other way 
E--------------------|-----------------------|
B------------5-5--5--|------------5--5-5-----|
G------6--6--6-6--6--|----6--6/8--6--6-6-----|
D------7--7--7-7--7--|----7--7/9--7--7-7-----|
A------7--7----------|----7--7/9-------------|
E--------------------|-----------------------|


    all you can do is watch them play 
E--------------------|------------------|
B------------5-5--5--|------------5--5--|
G------6--6--6-6--6--|----6--6/8--6--6--|
D------7--7--7-7--7--|----7--7/9--7--7--|
A------7--7----------|----7--7/9--------|
E--------------------|------------------|


 'theres no other way, theres no other way 
E--------------------|-----------------------|
B------------5-5--5--|------------5--5-5-----|
G------6--6--6-6--6--|----6--6/8--6--6-6-----|
D------7--7--7-7--7--|----7--7/9--7--7-7-----|
A------7--7----------|----7--7/9-------------|
E--------------------|-----------------------|


    all you can do is watch them play 
E--------------------|------------------|
B------------5-5--5--|------------5--5--|
G------6--6--6-6--6--|----6--6/8--6--6--|
D------7--7--7-7--7--|----7--7/9--7--7--|
A------7--7----------|----7--7/9--------|
E--------------------|------------------|




 'theres no other way, theres no other way 
E--------------------|-----------------------|
B------------5-5--5--|------------5--5-5-----|
G------6--6--6-6--6--|----6--6/8--6--6-6-----|
D------7--7--7-7--7--|----7--7/9--7--7-7-----|
A------7--7----------|----7--7/9-------------|
E--------------------|-----------------------|


    all you can do is watch them play 
E--------------------|------------------|
B------------5-5--5--|------------5--5--|
G------6--6--6-6--6--|----6--6/8--6--6--|
D------7--7--7-7--7--|----7--7/9--7--7--|
A------7--7----------|----7--7/9--------|
E--------------------|------------------|


 'theres no other way, theres no other way 
E--------------------|-----------------------|
B------------5-5--5--|------------5--5-5-----|
G------6--6--6-6--6--|----6--6/8--6--6-6-----|
D------7--7--7-7--7--|----7--7/9--7--7-7-----|
A------7--7----------|----7--7/9-------------|
E--------------------|-----------------------|


    all you can do is watch them play 
E--------------------|------------------|
B------------5-5--5--|------------5--5--|
G------6--6--6-6--6--|----6--6/8--6--6--|
D------7--7--7-7--7--|----7--7/9--7--7--|
A------7--7----------|----7--7/9--------|
E--------------------|------------------|


outro

this part of the song is based around the intro and also A and G.


E-----------------------------------------|
B-----------------------------------------|
G---6h7p6----------8----------6h7p6-------|
D----------7--7/9-----9\7--7--------------|
A-----------------------------------------|
E-----------------------------------------|




E--------------------------------------------------|--------------------------|
B--------------------------------------------------|---------5--5--5--5/7--7--|
G--/14---14-14---/14--14-14---12--12--12/14--14-14-|-6---6---6--6--6--6/8--8--|
D--/14---14-14---/14--14-14---12--12--12/14--14-14-|-7---7---7--7--7--7/9--9--|
A--------------------------------------------------|-7---7--------------------|
E--------------------------------------------------|--------------------------|



E--------------------------------------------------|--------------------------|
B--------------------------------------------------|---------5--5--5--5/7--7--|
G--/14---14-14---/14--14-14---12--12--12/14--14-14-|-6---6---6--6--6--6/8--8--|
D--/14---14-14---/14--14-14---12--12--12/14--14-14-|-7---7---7--7--7--7/9--9--|
A--------------------------------------------------|-7---7--------------------|
E--------------------------------------------------|--------------------------|



E--------------------------------------------------|--------------------------|
B--------------------------------------------------|---------5--5--5--5/7--7--|
G--/14---14-14---/14--14-14---12--12--12/14--14-14-|-6---6---6--6--6--6/8--8--|
D--/14---14-14---/14--14-14---12--12--12/14--14-14-|-7---7---7--7--7--7/9--9--|
A--------------------------------------------------|-7---7--------------------|
E--------------------------------------------------|--------------------------|


E--------------------------------------------------|-----------------------------|
B--------------------------------------------------|---------5--5-----------5/7--|
G--/14---14-14---/14--14-14---12--12--12/14--14-14-|-6---6---6--6--6--6--6--6/8--|
D--/14---14-14---/14--14-14---12--12--12/14--14-14-|-7---7---7--7--7--7--7--7/9--|
A--------------------------------------------------|-7---7---------7--7--7-------|
E--------------------------------------------------|-----------------------------|
comments
We did not receive enough feedback on this tab! Please rate:
print report bad tab
1 2 3 4 5
I want to post or [tab]
guest
You may want to rate the tab now too:
select rating
Please do not post tabs as comments. Select "correction" instead!