Oops, an error
Loading. Please wait.

Tracy Jacks bass

by Blur
481 views 6 this week
no commentswrite comment
1 2 3 4 5
3 more votes to show rating
add to favorites
×
Save as Personal and add changes to this tab that will be seen only by you. Learn more ›
×
You can save this tab as Personal to edit and correct it or add notes. All changes will be seen only by you. Learn more »
launch autoscroll
font size
0
reset
guitar tuner
edit
Autoscroll
slow
fast
+/-
esc
set tempo
stop
-----------------6h8--6h8--8--------6h8--------------------|
-----8-9---------------------9-7-9-------7h9---7---7---9---|
-------------------------------------------------9---------|
-----------------------------------------------------------|

 repeat until chorus

(Tracy Jacks) works in civil service
(Tracy Jacks) it's steady employment
(Tracy Jacks) it's a golfing fanatic
(Tracy Jacks) but his put is erratic
(Tracy Jacks) saw a Harley Street doctor
(Tracy Jacks) who prescribed healthy living
(Tracy Jacks) but he's getting past forty
(Tracy Jacks) and all the seams are splitting

------------------------------------------------------------------------------------------9-9-8-8-6-6-----|
--------------------------------------------------2-2-0-0--------------------------------------------9-9--|
-----------------------2-2-2-2-2-2-2-2-2-2-2-2-2----------4-4-3-3------------2-2-2-2-2-2-2----------------|
-3-3-3-3-3-3-3-3-3-3-3--------------------------------------------2-2-2-2-2-------------------------------|
Everyday he got closer
He knew in his heart he was over
I'd love to stay here and be normal
But it's just so overrated

(Tracy Jacks) left home without warning
(Tracy Jacks) at five in the morning
(Tracy Jacks) got on the first train to Walton
(Tracy Jacks) and stood on the seafront
(Tracy Jacks) threw his clothes in the water
(Tracy Jacks) and ran around naked
(Tracy Jacks) got stopped by the police
(Tracy Jacks) and escorted back home

Everyday he got closer
He knew in his heart he was over
I'd love to stay here and be normal
But then it's just so overrated

Tracy Jacks
Tracy Jacks
Tracy Jacks
Tracy Jacks

--------------------------------------9-9-8-8-6-6-----|
---------------------------------------------------9-9
----------0---2----------0----2------------------------
--4--------------4-------------------------------------

And then it happened on a Tuesday morning
Tracy Jacks bulldozed down the house he lived in
Saying it's just so overrated
Tracy Jacks
Tracy Jacks
Tracy Jacks
Tracy Jacks

Everyday he got closer
He knew in his heart he was over
I'd love to stay here and be normal
But it was always overrated
Suggest correction
Creating personal tab
Creating personal tab
You can edit any tab online and save it as your Personal.

You can edit, replace or remove any tab part or add personal notes – all changes will be seen only by you.

Personal tabs can be accessed anytime from any device, even offline.
Learn more »
Give kudos to tab author, rate the tab!
1 2 3 4 5
comments
print report bad tab
guest
You may want to rate the tab now too:
select rating
Wanna post a correction for this tab? Suggest correction