Oops, an error
Loading. Please wait.

Villa Rosie Bass Tab

by Blur
1,095 views 1 this week
no commentswrite comment
1 2 3 4 5
3 more votes to show rating
add to favorites
launch autoscroll
font size
0
reset
guitar tuner
Autoscroll
slow
fast
+/-
esc
set tempo
stop
Help us to improve Ultimate-Guitar.com Take our survey!
×
Author
BLUR - VILLA ROSIE
(Tabbed by w7w7w7)



Intro #1
G|-----------------------------------------------------------------------|
D|-/9-/9-/9-/9-/9-/9-/9-/9-/9-/9-/9-/9-/9-/9-/9-/9-----------------------|
A|-----------------------------------------------------------------------|
E|-----------------------------------------------------------------------|



Intro #2
G|-----------------------------------------------------------------------|
D|-----2---------------2-------------------------------------------------|
A|-0-2---2-0-2-0-2-0-2---2-0-2-0-2---------------------------------------|
E|-----------------------------------------------------------------------|



Intro #3, x2
G|-----------------------------------------------------------------------|
D|-2-----2-----4---X-7-4---/5--------------------------------------------|
A|-----2------------------------5\---3-3---------------------------------|
E|-----------------------------------------------------------------------|



Verse, x4
G|-----------------------------------------------------------------------|
D|-2-----2-----4--4--------5---------------------------------------------|
A|-----------------------------5\---3-3----------------------------------|
E|-----0-----0-------2\--------------------------------------------------|



Chorus, x2
G|-----------------------------------------------------------------------|
D|-------------------2---------------------------------------------------|
A|-0-----4---0---2-4-----0---2-----0-2-0-2-------------------------------|
E|---------------------------------------------0-4-0-4-------------------|

G|--------------------------- -------------------------------------------|
D|--------------------------- -------------7-9---------------------------|
A|--------------------------- -----6-9-6-9-------------------------------|
E|-3-----0-3-0-3-------0-5-7- -5-7---------------------------------------|
         last time stop here |


Intro #3, x2

Verse, x4

Chorus, x2

Intro #2

Intro #3, x4

Chorus, x6



End
G|-----------------------------------------------------------------------|
D|-----------------------------------------------------------------------|
A|-----2-----------2-----------------------------------------------------|
E|-1-----------1-----------1---------------------------------------------|
Suggest correction
Give kudos to tab author, rate the tab!
1 2 3 4 5
comments
print report bad tab
guest
You may want to rate the tab now too:
select rating
Wanna post a correction for this tab? Suggest correction