Oops, an error
Loading. Please wait.

Woo Hoo Tab

version 1
version 1

Whole song

by Blur
43,868 views 36 this week
20 commentsread comments
1 2 3 4 5
worth learning
x 30
add to favorites
launch autoscroll
font size
0
reset
how to read this tab
guitar tuner
Autoscroll
slow
fast
+/-
esc
set tempo
stop
Help us to improve Ultimate-Guitar.com Take our survey!
×
Title: WooHoo
Band: Blur
 
Tabbed out by ear by the Guitar Maniac! ©
        100% correct!!!!
   
e|-------------------------------------|
B|-------------------------------------|
G|-------------------------------------| 
D|--9-9-9--7-7-7--12-12--14--16--16-16-|
A|--9-9-9--7-7-7--12-12--14--16--16-16-|
E|--7-7-7--5-5-5--10-10--12--14--14-14-|

 This is a very easy song.
 When the distorted guitar bit starts the
 bass plays the route note of every power chord.
 bass:
 G|-------------------------------------|
 D|-------------------------------------|
 A|-------------------------------------|
 E|--7-7-7--5-5-5--10-10--12--14--14-14-|
comments
print report bad tab
20 comments total. Showing first comments. show 1 bad comment
+1 reply
mick gay 22 wrote on December 15 2002, 12:00 am

cool i thought it was this:
810, 68, 1113, 1315, 1517

---------------------------------------|
---------------------------------------|
---------------------------------------|
--10-10-x-8-8-x-13-13-x-15-x-17-17-17--|
--8--8--x-6-6-x-11-11-x-13-x-15-15-15--|
---------------------------------------|

thanks dude!

+2 reply
zeroisgreatman 3,067 wrote on December 15 2002, 12:00 am

The song is called song 2 not woo who, and your tab isn't in the right tunning,
Its a DADGBE tunning, and it sounds pretty wrong, also you put bass tabs by themselfs, not together with a guitar tab. But, it's still ok I guess. 2stars.

I want to post or [tab]
guest
You may want to rate the tab now too:
select rating
Please do not post tabs as comments. Select "correction" instead!