Oops, an error
Loading. Please wait.

If You Want Love Lower Your Expectations tab

5,197 views 87 this week
no commentswrite comment
1 2 3 4 5
x 6
add to favorites
×
Save as Personal and add changes to this tab that will be seen only by you. Learn more ›
×
You can save this tab as Personal to edit and correct it or add notes. All changes will be seen only by you. Learn more »
launch autoscroll
font size
0
reset
how to read this tab
guitar tuner
edit
Autoscroll
slow
fast
+/-
esc
set tempo
stop
Author
Hey guys, I got the chords for this great song from this great Youtube video:
https://www.youtube.com/watch?v=7zqUsXytWQE
then adapted it to be played on guitar, hope you enjoy it, it's by far my favourite song from his new show.


[Verse]

   E           C#m         A           B
e|---7---7------4----4------5----5------2----2------|
B|---9---9------5----5------5----5------4----4------|
G|---9---9------6----6------6----6------4----4------|
D|---9---9------6----6------7----7------4----4------|
A|-7---7------4----4--------7----7----2----2--------|
E|------------------------5----5--------------------|


[Bridge]

   E           A         C#m          B
e|-7----------5-----------4-----------2-----------|
B|-9----------5-----------5-----------4-----------|
G|-9----------6-----------6-----------4-----------|
D|-9----------7-----------6-----------4-----------|
A|-7----------7-----------4-----------2-----------|
E|------------5-----------------------------------|


[Chorus]

   E       C#m     A       B
e|-7-7-7-7-4-4-4-4-5-5-5-5-2-2-2-2------|
B|-9-9-9-7-5-5-5-5-5-5-5-5-4-4-4-4------|
G|-9-9-9-9-6-6-6-6-6-6-6-6-4-4-4-4------|
D|-9-9-9-9-6-6-6-6-7-7-7-7-4-4-4-4------|
A|-7-7-7-7-4-4-4-4-7-7-7-7-2-2-2-2------|
E|-----------------5-5-5-5--------------|

            
            
Suggest correction
Creating personal tab
Creating personal tab
You can edit any tab online and save it as your Personal.

You can edit, replace or remove any tab part or add personal notes – all changes will be seen only by you.

Personal tabs can be accessed anytime from any device, even offline.
Learn more »
comments
print report bad tab
guest
You may want to rate the tab now too:
select rating
Wanna post a correction for this tab? Suggest correction