Oops, an error
Loading. Please wait.

Ett Fullkomligt Kaos Tab

4,557 views 9 this week
no commentswrite comment
1 2 3 4 5
1 last vote to show rating
add to favorites
launch autoscroll
font size
0
reset
how to read this tab
guitar tuner
Autoscroll
slow
fast
+/-
esc
set tempo
stop
Help us to improve Ultimate-Guitar.com Take our survey!
×
Difficulty
intermediate
Artist: Bo Kaspers Orkester
Låt: Ett fullkomligt kaos
Album: Kaos


I början har jag skrivit ut några 
slingor man kan spela över ackorden.

Det spelas små slingor överallt i låten 
den de här framträder mest tycker jag. 
Men skicka gärna fler.

[Fig 1] ett är jag ganska säker på.
De andra är jag lite mer tveksamma på, men de låter bra.


[Fig 1]
E|-5----5-|-7----7-|-9----9-|-7----7-|
H|---7----|---7----|---7----|---7----|
G|----7---|----7---|----7---|----7---|
D|--------|--------|--------|--------|
A|--------|--------|--------|--------|
E|--------|--------|--------|--------|

[Fig 2]
E|-5----5-|-7----7-|-8----8-|-10---10|
H|---7----|---7----|---7----|---7----|
G|----7---|----7---|----7---|----7---|
D|--------|--------|--------|--------|
A|--------|--------|--------|--------|
E|--------|--------|--------|--------|


[Fig 3]
E|-5----5-|-7----7-|-9----9-|-10---10|
H|---7----|---7----|---7----|---7----|
G|----7---|----7---|----7---|----7---|
D|--------|--------|--------|--------|
A|--------|--------|--------|--------|
E|--------|--------|--------|--------|


Intro
D[Fig 1] X2


Vers 1
D[Fig 1]
Inget fungerar Resten rasar

[Fig 2]
Olyckskorparna kalasar
    Em             A              D[Fig 1]
Vi tog oss an för mycket och för fort


Vers 2
D[Fig 1]
Golvet knakar taket läcker
[Fig 2]
Nätt och jämt så att det räcker

    Em          A            D[Fig 3]
Och inga gulddetaljer i vår port


Refr 1
Em                      A
   Det ska va på vissa vis
Em                        A
   Det ger vi fan i givetvis
Em                     A           D [Fig 1] x2
   Vårt palats är ett fullkomligt kaos


Vers 3
D[Fig 1]
Hela havet fullt av båtar
[Fig 2]
Varje rum kör sina låtar
     Em        A              D[Fig 1]
Och var inte idag först nästa år


Vers 4
D[Fig 1]
Andra har så fin planering
[Fig 2]
Tid och råd med renovering
     Em          A            D[Fig 3]
Och nya kök som luktar lite klor

Refr 2
Em                      A
   Det ska va på vissa sätt
Em                      A
   Stilrent ner i helvetet
Em                   A             D[Fig 1] x2
   Vårt palats är ett fullkomligt kaos


Mellanspel
C///A///C///


Refr 3
Em                         A
   Flickan sover och mår bra
Em                      A
   Bättre kan det inte va
Em                     A           D [Fig 1] x2
   Vårt palats är ett fullkomligt kaos



D[Fig 1]x2    
Ett fullkomligt kaos 

D[Fig 1]x2
Ett fullkomligt kaos

D
Suggest correction
Give kudos to tab author, rate the tab!
1 2 3 4 5
comments
print report bad tab
guest
You may want to rate the tab now too:
select rating
Wanna post a correction for this tab? Suggest correction