Oops, an error
Loading. Please wait.

Hon Ar Sa Sot Bass Tab

1,436 views 1 this week
no commentswrite comment
1 2 3 4 5
please rate
add to favorites
launch autoscroll
font size
0
reset
guitar tuner
Autoscroll
slow
fast
+/-
esc
set tempo
stop
Help us to improve Ultimate-Guitar.com Take our survey!
×
#-----------------------------------------------------------------------------#
#-- File created with Instab - http://www.pconline.com/~smcarey/instab.html --#
#-----------------------------------------------------------------------------#

Author/Artist: Bo Kaspers Orkester
Title: Hon är så söt
Album: På Hotel
Transcribed by: Henrik Malmquist
Email: tipx@hotmail.com

Bastab
Intro
------------------------------------------------------------------------------
---------------------------7--------------------------------------------------
-5---3--5----3--5----3--5-----------------------------------------------------
------------------------------------------------------------------------------  

Vers 
------------------------------------------------------------------------------
------------8-7--5--3--------------------8--7------6h7-7---6h7-7---6h7-7----7-
5--7-------------------3--5---7----------------5--------5-------5---------5---

-----6-5--5---------------------6--5---5--------------------------------------

Vers 
------------------------------------------------------------------------------
---------------8--7--5--3------------------------8--7-------7-7-------7-7-----
-5--7-----------------------3--5----7------------------5---------5------------
-------6-5--5---------------------------6-5---5-----------8--------8----------
                         Vers                                                           
------------------------------------------------------------------------------
--------7-7-----7---------------------8-8--7--5--3----------------------------
--5----------5-----------5--7------------------------3--5---7-----------------
-----8------------------------6-5--5---------------------------6--5----5------
                                                                             
------------------------------------------------------------------------------
-8--7-------7-7-------7-7-------7-7-----7-------------------------------------
-------5----------5--------5---------5----------------------------------------
----------8----------8--------8-----------------------------------------------

Solo
------------------------------------------------------------------------------
---------------8--7--5--3------------------------8--7-------7-7-------7-7-----
-5--7-----------------------3--5----7------------------5---------5------------
-------6-5--5---------------------------6-5---5-----------8--------8----------

------------------------------------------------------------------------------
-----------8-7-5-8--7--5--3---------------8-8-7-----7--7-----7-7----7-7----7--
-5--7-----------------------3--5--7--------------5-------5-------5-------5--7-
-------6-5--------------------------6-5--5---------8-------8-------8----------

------------------------------------------------------------------------------
----7-7-----7-----------------------------------------------------------------
5--------5--------------------------------------------------------------------
--8----------------------------------------------------------------------------




Vers
------------------------------------------------------------------------------
----------------7-8--7--5--3--------------------8--7------7-7-------7-7-------
5--7---------------------------3-5--7-----------------5--------5--------------
------6-5---5---------------------------6-5--5----------8---------8-----------

------------------------------------------------------------------------------
---------------7-5---8--7--5--3-------------------8--7-------7------7-7-------
5--7---------------8-------------3--5--7------------------5------5------------
------6-5---5----------------------------6-5---5------------------------------

------------------------------------------------7-----------------------------
---7----7-7------7-7------7-7-----7-7------7----------------------------------
5-----5------5--------5--------5--------5---------5---------------------------
---------------8--------8--------8--------------------------------------------


This is my first basstab so I'm not 100% sure that it's right.
If you find any corrections please email them to me and I'll fix it.

Suggest correction
Give kudos to tab author, rate the tab!
1 2 3 4 5
comments
print report bad tab
guest
You may want to rate the tab now too:
select rating
Wanna post a correction for this tab? Suggest correction